Oops, an error
Loading. Please wait.

Holdfast Tab

version 1
version 1

Whole song

Interactive

2,391 views 1 this week
no commentswrite comment
1 2 3 4 5
please rate
add to favorites
launch autoscroll
font size
0
reset
how to read this tab
guitar tuner
Tab Pro tools
  • play this tab
  • loop segment
  • change instrument
  • show fretboard
  • metronome
×
Best way to learn
"Holdfast"
Autoscroll
slow
fast
+/-
esc
set tempo
stop
Contributor
Holdfast-The Devil wears prada 

Tuning Drop B 

Tabber:smallen

Email:allensam83@yahoo.com

Looked up tabs for this song and could only find the intro 
So i sat down for about 30 minutes and this what i got enjoy 
No rhythm and stuff this is just how i play it 

intro 
|-------------------20----20----20-17-18-17-18-17-|
|--15---15-17-15-17----18----18-------------------|
|-------------------------------------------------|
|-------------------------------------------------|
|-------------------------------------------------|
|-------------------------------------------------|

|-------------------20----20----20-17-22-17-22-17-|
|--15---15-17-15-17----18----18-------------------|
|-------------------------------------------------|
|-------------------------------------------------|
|-------------------------------------------------|
|-------------------------------------------------|

Bridge
|-----------|
|-----------|
|--10--12---|
|--x---x----|
|--8---10---|
|-----------|


|--------12--------------15---------------12-------------------------------|
|-----------13--------------13---------------13----------------------------|
|--------------14--------------14---------------15-------------------------|
|---------------------------------------------------5-5-5-5-5-5-3-3-3-3-3-3|
|-0-0000----------0-0000-----------0-0000-----------5-5-5-5-5-5-3-3-3-3-3-3|
|-0-0000----------0-0000-----------0-0000-----------5-5-5-5-5-5-3-3-3-3-3-3|
  . ....          . ....           . ....

|----------------------------------------------------------|
|----------------------------------------------------------|
|-----------------10-10-10-10----------------12-12-12-12---|
|-----------------x--x--x--x-----------------x--x--x--x----|
|-0-0000--0-0000--8--8--8--8--0-0000--0-0000-10-10-10-10---|
|-0-0000--0-0000--------------0-0000--0-0000---------------|
  . ....  . ....              . ....  . ....
|--------------------------------------------------------------------------------|
|--------------------------------------------------------------------------------|
|-----------------10-10-10-10-10-10-10-10-12-12-14-14-16-16-19-19-19-19-19-19----|
|-----------------x--x--x--x--x--x--x--x--x--x--x--x--x--x--x--x--x--x--x--x-----|
|-0-0000--0-0000--8--8--8--8--8--8--8--8--10-10-12-12-14-14-17-17-17-17-17-17----|
|-0-0000--0-0000-----------------------------------------------------------------|
  . ....  . ....
|---------------------------------------------------------------------------------|
|---------------------------------------------------------------------------------|
|-------------------------------------------------------------7---7---------------|
|-------------------------------------------------------------x---x------------0--|
|-------------------------------------------------------------5---5------------0--|
|--8b-0-8b-0-00000000-8b-0-8b-0-00000000-10b-0-10b-0-00000000---0---0-00000000-0--|
             ........           ........             ........         ........ .
bridge
strum these chords couldnt be bothered with the rhythm 
|------------|
|-8-10-11-13-|
|-7-9--10-12-|
|-5-7--8--10-|
|------------|
|------------|


|-------------------20----20----20-17-18-17-18-17-|
|--15---15-17-15-17----18----18-------------------|
|-------------------------------------------------|
|-------------------------------------------------|
|-------------------------------------------------|
|-------------------------------------------------|

|-------------------20----20----20-17-22-17-22-17-|
|--15---15-17-15-17----18----18-------------------|
|-------------------------------------------------|
|-------------------------------------------------|
|-------------------------------------------------|
|-------------------------------------------------|

Bridge
|-----------|
|-----------|
|--10--12---|
|--x---x----|
|--8---10---|
|-----------|
 
tremelo pick the open d string palm muted 
|-----------------------------------------------------------------------|
|-----------------------------------------------------------------------|
|-----------------------------------------------------------------------|
|-15-0-14-0-12-0-10-0-12-0-10-0-12-0-15-0-14-0-12-0-17-0-15-0-14-0-12---|
|-----------------------------------------------------------------------|
|-----------------------------------------------------------------------|

end with an open chug and then...

|------------|
|-8-10-11-13-|
|-7-9--10-12-|
|-5-7--8--10-|
|------------|
|------------|

|-------------------20----20----20-17-18-17-18-17-|
|--15---15-17-15-17----18----18-------------------|
|-------------------------------------------------|
|-------------------------------------------------|
|-------------------------------------------------|
|-------------------------------------------------|

|-------------------20----20----20-17-22-17-22-17-|
|--15---15-17-15-17----18----18-------------------|
|-------------------------------------------------|
|-------------------------------------------------|
|-------------------------------------------------|
|-------------------------------------------------|

|---------------------------------------------------|
|---------------------------------------------------|
|---------------------------------------------------|
|--0~-0-0-8/-0-0-12/-0-0-10-10-10-10-10-10-10-10----|
|--0~-0-0-8/-0-0-12/-0-0-8--8--8--8--8--8--8--8-----|
|--0~-0-0-8/-0-0-12/-0-0-8--8--8--8--8--8--8--8-----|

this chord stummed alot 
|----|
|----|
|----|
|-10-|
|-8--|
|-8--|

|---------------------------------------------|
|---------------------------------------------|
|---------------------------------------------|
|-----------8-----------------0-----12/-------|
|--0-0--00008--0-00000-0-0-0--0-0-0-12/-0-0---|
|--0-0--00008--0-00000-0-0-0--0-0-0-12/-0-0---|
   . .  ....   . ..... . . .    . .     . .
|---------------------------------------------|
|---------------------------------------------|
|---------------------------------------------|
|-----------8-----------------0-----12---12-10|
|--0-0--00008--0-00000-0-0-0--0-0-0-12-0-12-10|
|--0-0--00008--0-00000-0-0-0--0-0-0-12-0-12-10|
   . .  ....   . ..... . . .    . .    .


|-------------------20----20----20-17-18-17-18-17-|
|--15---15-17-15-17----18----18-------------------|
|-------------------------------------------------|
|-------------------------------------------------|
|-------------------------------------------------|
|-------------------------------------------------|

|-------------------20----20----20-17-22-17-22-17-|
|--15---15-17-15-17----18----18-------------------|
|-------------------------------------------------|
|-------------------------------------------------|
|-------------------------------------------------|
|-------------------------------------------------|


|-------------|
|-------------|
|-------------|
|--8-0-8-0~---|
|--8-0-8-0~---|
|--8-0-8-0~---|

you can work out how many times each section is played but there yah go!
comments
We did not receive enough feedback on this tab! Please rate:
print report bad tab
1 2 3 4 5
I want to post or [tab]
guest
You may want to rate the tab now too:
select rating
Please do not post tabs as comments. Select "correction" instead!