Oops, an error
Loading. Please wait.

Html Rulez D00D bass

version 1
version 1

Whole song

Interactive

12,117 views 1 this week
no commentswrite comment
1 2 3 4 5
x 4
add to favorites
×
Save as Personal and add changes to this tab that will be seen only by you. Learn more ›
×
You can save this tab as Personal to edit and correct it or add notes. All changes will be seen only by you. Learn more »
launch autoscroll
font size
0
reset
guitar tuner
edit
Autoscroll
slow
fast
+/-
esc
set tempo
stop
                                HTML Rulez D00d                                 


                                                           The Devil Wears Prada
Bass



G||-------|-------|-------|-------|-------|-------|-------|-------|
D||-------|-------|-------|-------|-------|-------|-------|-------|
A||-------|-------|-------|-------|-------|-------|-------|-------|
D||-------|-------|-------|-------|-------|-------|-------|-------|


  Q    Q    E  E  Q       E  E  Q    E  E  E  E     Q    Q    E  E  Q     
-----------------------|-------------------------|-----------------------|
-----------------------|-------------------------|-----------------------|
-----------------------|----------------8--8--8--|-----------------------|
--8----8----8--8--8----|--8--8--8----8-----------|--8----8----8--8--8----|


  E  E  Q    E  E  E  E     Q    E  E  Q    E  E     Q    E  E  Q    E  E   
-------------------------|------------------------|------------------------|
-------------------------|------------------------|------------------------|
----------------8--8--8--|-------8--8--8----------|-------8--8--8----------|
--8--8--8----8-----------|--0---------------0--0--|--L---------------0--0--|


  Q    E  E  Q    E  E     Q    E  E  Q    Q       Q    Q    E  E  E  E   
------------------------|-----------------------|------------------------|
------------------------|-----------------------|------------------------|
-------8--8--8----------|-------7--7--7---------|------------------------|
--L---------------0--0--|--0---------------0----|--3----3----3--3--3--3--|


  E  E  Q    E  E  E  E     Q    Q    E  E  E  E     E  E  Q    E  E  E  E   
-------------------------|------------------------|-------------------------|
-------------------------|------------------------|-------------------------|
-------------------------|------------------------|-------------------------|
--L--3--3----3--3--3--3--|--5----5----5--5--5--5--|--L--5--5----5--5--5--5--|


  Q    E  E  Q    E  E     Q    E  E  Q    E  E     Q    E  E  Q    E  E   
------------------------|------------------------|------------------------|
------------------------|------------------------|------------------------|
-------8--8--8----------|-------8--8--8----------|-------8--8--8----------|
--0---------------0--0--|--L---------------0--0--|--L---------------0--0--|


  Q    E  E  E  E  E  E     E  E  E  E  E  E  E  E     E  E  E  E  E  E  E  E   
-------------------------|--------------------------|--------------------------|
-------------------------|--------------------------|--------------------------|
-------7--7--7--7--7--7--|--5--5--5-----5-----5-----|--5-----5-----5--5--5-----|
--0----------------------|--------------------------|--------------------------|


  E  E  E  E  E  E  E  E     E  E  E  E  E  E  E  E   
--------------------------|--------------------------|
--------------------------|--------------------------|
--5--5--5-----5-----5-----|--5-----------5--5--5-----|
--------------------------|--------------------------|


  S S S S E  E  E  E  E  E     S S S S E  E  S S S S E  E   
----------------------------|------------------------------|
----------------------------|------------------------------|
----------------------------|------------------------------|
--0-0-0-0-0-----0-----0-----|--0-0-0-0-0-----0-0-0-0-0-----|


  S S S S E  E  E  E  E  E     S S S S E  E  E  E  Q     
----------------------------|---------------------------|
----------------------------|---------------------------|
----------------------------|---------------------------|
--0-0-0-0-0-----0-----0-----|--0-0-0-0-0--0--0--0--0----|


  S S S S E  E  E  E  E  E     S S S S E  E  S S S S E  E   
----------------------------|------------------------------|
----------------------------|------------------------------|
----------------------------|------------------------------|
--0-0-0-0-0-----0-----0-----|--0-0-0-0-0-----0-0-0-0-0-----|


  S S S S E  E  E  E  E  E     S S S S E  E  E  E  Q       W                 
----------------------------|---------------------------|-------------------|
----------------------------|---------------------------|-------------------|
----------------------------|---------------------------|-------------------|
--0-0-0-0-0-----0-----0-----|--0-0-0-0-0--0--0--0--0----|--0----------------|


  W                   W                   W                 
-------------------|-------------------|-------------------|
-------------------|-------------------|-------------------|
-------------------|-------------------|-------------------|
--L----------------|--L----------------|--L----------------|


  E  E  E  E  E  E  E  E     E  E  E  E  E  E  E  E   
--------------------------|--------------------------|
--------------------------|--------------------------|
--5--5--5--5--5--5--5--5--|--5--5--5--5--5--5--5--5--|
--------------------------|--------------------------|


  E  E  E  E  E  E  E  E     E  E  E  E  E  E  E  E   
--------------------------|--------------------------|
--------------------------|--------------------------|
--3--3--3--3--3--3--3--3--|--3--3--3--3--3--3--3--3--|
--------------------------|--------------------------|


  E  E  E  E  E  E  E  E     E  E  E  E  E  E  E  E   
--------------------------|--------------------------|
--------------------------|--------------------------|
--1--1--1--1--1--1--1--1--|--1--1--1--1--1--1--1--1--|
--------------------------|--------------------------|


  E  E  E  E  E  E  E  E     E  E  E  E  E  E  E  E   
--------------------------|--------------------------|
--------------------------|--------------------------|
--------------------------|--0--0--0--0--3--3--3--3--|
--5--5--5--5--5--5--5--5--|--------------------------|


  E  E  E  E  E  E  E  E     E  E  E  E  E  E  E  E   
--------------------------|--------------------------|
--------------------------|--------------------------|
--5--5--5--5--5--5--5--5--|--5--5--5--5--5--5--5--5--|
--------------------------|--------------------------|


  E  E  E  E  E  E  E  E     E  E  E  E  E  E  E  E   
--------------------------|--------------------------|
--------------------------|--------------------------|
--3--3--3--3--3--3--3--3--|--3--3--3--3--3--3--3--3--|
--------------------------|--------------------------|


  E  E  E  E  E  E  E  E     E  E  E  E  E  E  E  E   
--------------------------|--------------------------|
--------------------------|--------------------------|
--1--1--1--1--1--1--1--1--|--1--1--1--1--1--1--1--1--|
--------------------------|--------------------------|


  E  E  E  E  E  E  E  E     E  E  E  E  E  E  E  E   
--------------------------|--------------------------|
--------------------------|--------------------------|
--------------------------|--0--0--0--0--3--3--3--3--|
--5--5--5--5--5--5--5--5--|--------------------------|


  S S S S E  E  E  E  E  E     S S S S E  E  S S S S E  E   
----------------------------|------------------------------|
----------------------------|------------------------------|
----------------------------|------------------------------|
--0-0-0-0-0-----0-----0-----|--0-0-0-0-0-----0-0-0-0-0-----|


  S S S S E  E  E  E  E  E     S S S S E  E  S S S S E  E   
----------------------------|------------------------------|
----------------------------|------------------------------|
----------------------------|------------------------------|
--0-0-0-0-0-----0-----0-----|--0-0-0-0-0-----0-0-0-0-0-----|


  S S S S E  E  E  E  E  E     S S S S E  E  S S S S E  E   
----------------------------|------------------------------|
----------------------------|------------------------------|
----------------------------|------------------------------|
--0-0-0-0-0-----0-----0-----|--0-0-0-0-0-----0-0-0-0-0-----|


  S S S S E  E  E  E  E  E     S S S S E  E  S S S S E  E   
----------------------------|------------------------------|
----------------------------|------------------------------|
----------------------------|------------------------------|
--0-0-0-0-0-----0-----0-----|--0-0-0-0-0-----0-0-0-0-0-----|


  S S S S E  E  E  E  Q       W                   S S S S E  E  E  E  Q     
---------------------------|-------------------|---------------------------|
---------------------------|-------------------|---------------------------|
---------------------------|-------------------|---------------------------|
--0-0-0-0-0-----0----------|-------------------|--0-0-0-0-0-----0----------|


  W                   S S S S E  E  E  E  Q       W                 
-------------------|---------------------------|-------------------|
-------------------|---------------------------|-------------------|
-------------------|---------------------------|-------------------|
-------------------|--0-0-0-0-0-----0----------|-------------------|


  S S S S E  E  E  E  Q       W                   E  E  H.            
---------------------------|-------------------|---------------------|
---------------------------|-------------------|---------------------|
---------------------------|-------------------|---------------------|
--0-0-0-0-0-----0----------|-------------------|--0--0--L------------|


  W                   E  E  H.              W                 
-------------------|---------------------|-------------------|
-------------------|---------------------|-------------------|
-------------------|---------------------|-------------------|
--L----------------|--0--0--L------------|--L----------------|


  E  E  H.              W                   E  E  H.            
---------------------|-------------------|---------------------|
---------------------|-------------------|---------------------|
---------------------|-------------------|---------------------|
--0--0--L------------|--L----------------|--0--0--L------------|


  H        E  E  E  E     Q                                                     
-----------------------|-------|-------|-------|-------|-------|-------|-------|
-----------------------|-------|-------|-------|-------|-------|-------|-------|
-----------------------|-------|-------|-------|-------|-------|-------|-------|
--L--------0--0--0--0--|--0----|-------|-------|-------|-------|-------|-------|


          E  E  E  E  E  E  E  E     E  E  E  E  E  E  E  E   
-------|--------------------------|--------------------------|
-------|--------------------------|--------------------------|
-------|--------------------------|--------------------------|
-------|--0--0--0--0--0--0--0--0--|--0--0--0--0--0--0--0--0--|


  E  E  E  E  E  E  E  E     E  E  E  E  E  E  E  E   
--------------------------|--------------------------|
--------------------------|--------------------------|
--------------------------|--------------------------|
--3--3--3--3--3--3--3--3--|--3--3--3--3--3--3--3--3--|


  E  E  E  E  E  E  E  E     E  E  E  E  E  E  E  E   
--------------------------|--------------------------|
--------------------------|--------------------------|
--------------------------|--------------------------|
--5--5--5--5--5--5--5--5--|--5--5--5--5--5--5--5--5--|


  E  E  E  E  E  E  E  E     E  E  E  E  E  E  E  E   
--------------------------|--------------------------|
--------------------------|--------------------------|
--------------------------|--------------------------|
--8--8--8--8--8--8--8--8--|--8--8--8--8--8--8--8--8--|


  E  E  E  E  E  E  E  E     E  E  E  E  E  E  E  E   
--------------------------|--------------------------|
--------------------------|--------------------------|
--------------------------|--------------------------|
--0--0--0--0--0--0--0--0--|--0--0--0--0--0--0--0--0--|


  E  E  E  E  E  E  E  E     E  E  E  E  E  E  E  E   
--------------------------|--------------------------|
--------------------------|--------------------------|
--------------------------|--------------------------|
--3--3--3--3--3--3--3--3--|--3--3--3--3--3--3--3--3--|


  E  E  E  E  E  E  E  E     E  E  E  E  E  E  E  E   
--------------------------|--------------------------|
--------------------------|--------------------------|
--------------------------|--------------------------|
--5--5--5--5--5--5--5--5--|--5--5--5--5--5--5--5--5--|


  E  E  E  E  E  E  E  E     E  E  E  E  E  E  E  E     W                 
--------------------------|--------------------------|-------------------|
--------------------------|--------------------------|-------------------|
--------------------------|--------------------------|-------------------|
--8--8--8--8--8--8--8--8--|--8--8--8--8--8--8--8--8--|--0----------------|


  W                   W                   W                 
-------------------|-------------------|-------------------|
-------------------|-------------------|-------------------|
-------------------|-------------------|-------------------|
--L----------------|--L----------------|--L----------------|


  E  E  Q    H           W                   W                 
----------------------|-------------------|-------------------|
----------------------|-------------------|-------------------|
----------------------|-------------------|-------------------|
--0--0----------------|-------------------|-------------------|


  E  E  E  E  E  E  E  E     E  E   E   E  E   E  E  E   
--------------------------|-----------------------------|
--------------------------|--------10p--0---------------|
--------------------------|----------------7p--5--------|
--3--3--3--3--7--7--7--7--|--0--0-----------------0--0--|


   E   E  E   E  E   E  E   E     E  E   E   E  E   E  E  E   
-------------------------------|-----------------------------|
--12p--0---------5p--0--2p--0--|--------10p--0---------------|
----------7p--5----------------|----------------7p--5--------|
-------------------------------|--0--0-----------------0--0--|


  E  E  E  E  E  E  E  E     E  E   E   E  E   E  E  E   
--------------------------|-----------------------------|
--------------------------|--------10p--0---------------|
--------------------------|----------------7p--5--------|
--3--3--3--3--7--7--7--7--|--0--0-----------------0--0--|


   E   E  E   E  E   E  E   E     E  E   E   E  E   E  E  E   
-------------------------------|-----------------------------|
--12p--0---------5p--0--2p--0--|--------10p--0---------------|
----------7p--5----------------|----------------7p--5--------|
-------------------------------|--0--0-----------------0--0--|


  E  E  E  E  E  E  E  E     E  E   E   E  E   E  E  E   
--------------------------|-----------------------------|
--------------------------|--------10p--0---------------|
--------------------------|----------------7p--5--------|
--3--3--3--3--7--7--7--7--|--0--0-----------------0--0--|


   E   E  E   E  E   E  E   E     E  E   E   E  E   E  E  E   
-------------------------------|-----------------------------|
--12p--0---------5p--0--2p--0--|--------10p--0---------------|
----------7p--5----------------|----------------7p--5--------|
-------------------------------|--0--0-----------------0--0--|


  E  E  E  E  E  E  E  E     E  E   E   E  E   E  E  E   
--------------------------|-----------------------------|
--------------------------|--------10p--0---------------|
--------------------------|----------------7p--5--------|
--3--3--3--3--7--7--7--7--|--0--0-----------------0--0--|


   E   E  E   E  E   E  E   E     E  E   E   E  E   E  E  E   
-------------------------------|-----------------------------|
--12p--0---------5p--0--2p--0--|--------10p--0---------------|
----------7p--5----------------|----------------7p--5--------|
-------------------------------|--0--0-----------------0--0--|


  E  E  E  E  E  E  E  E     W                   H        H         
--------------------------|-------------------|--------------------|
--------------------------|-------------------|--------------------|
--------------------------|-------------------|--------------------|
--3--3--3--3--7--7--7--7--|--0----------------|--L--------0--------|


  S S S S S S S S E  S E  S E     E  S E  S E  E  S E  S E   
-------------------------------|----------------------------|
-------------------------------|----------------------------|
-------------------------------|----------------------------|
--0-0-0---0-0-0------0-0--0-0--|-----0-0--0-0-----0-0--0-0--|


  S S S S S S S S E  S E  S E     E  S E  S E  E  S E  S E   
-------------------------------|----------------------------|
-------------------------------|----------------------------|
-------------------------------|----------------------------|
--0-0-0---0-0-0------0-0--0-0--|-----0-0--0-0-----0-0--0-0--|


  S S S S S S S S E  S E  S E     E  S E  S E  E  S E  S E   
-------------------------------|----------------------------|
-------------------------------|----------------------------|
-------------------------------|----------------------------|
--0-0-0---0-0-0------0-0--0-0--|-----0-0--0-0-----0-0--0-0--|


  S S S S S S S S E  S E  S E     E  S E  S E  H         
-------------------------------|------------------------|
-------------------------------|------------------------|
-------------------------------|------------------------|
--0-0-0---0-0-0------0-0--0-0--|-----0-0--0-0-----------|


  S S S S S S S S E  S E  S E     E  S E  S E  E  S E  S E   
-------------------------------|----------------------------|
-------------------------------|----------------------------|
-------------------------------|----------------------------|
--1-1-1---1-1-1------1-1--1-1--|-----1-1--1-1-----1-1--1-1--|


  S S S S S S S S E  S E  S E     E  S E  S E  E  S E  S E   
-------------------------------|----------------------------|
-------------------------------|----------------------------|
-------------------------------|----------------------------|
--1-1-1---1-1-1------1-1--1-1--|-----1-1--1-1-----1-1--1-1--|


  H        E  S E  S E     E  S E  S E  E  S E  S E   
------------------------|----------------------------|
------------------------|----------------------------|
------------------------|----------------------------|
--------------0-0--0-0--|-----0-0--0-0-----0-0--0-0--|


  S S S S S S S S E  S E  S E     E  S E  S E  E  S E  S E   
-------------------------------|----------------------------|
-------------------------------|----------------------------|
-------------------------------|----------------------------|
--0-0-0---0-0-0------0-0--0-0--|-----0-0--0-0-----0-0--0-0--|


  Q    Q    H          
---------------------||
---------------------||
---------------------||
--0------------------||




Duration Legend
---------------
W - whole
H - half
Q - quarter
E - 8th
S - 16th
T - 32nd
X - 64th
. - note dotted
|-n-|  - n-tuplets


Tablature Legend
----------------
L - tied note
x - dead note
g - grace note
(n) - ghost note
> - accentuded note
NH - natural harmonic
AH - artificial harmonic
TH - tapped harmonic
SH - semi harmonic
PH - pitch harmonic
h - hammer on
p - pull off
b - bend
br - bendRelease
pb - preBend
pbr - preBendRelease
brb - bendReleaseBend
\n/ - tremolo bar dip
\n - tremolo bar dive
-/n - tremolo bar Release up
/n\ - tremolo bar inverted dip
/n - tremolo bar return
-\n - tremolo bar Release down
S - shift slide
s - legato slide
/ -  slide into from below or out of upwards
\ -  slide into from above or out of downwards
~ - vibrato
W - wide vibrato
tr - trill
TP - tremolo picking
T - tapping
S - slap
P - pop
< - fade in
^ - brush up
v - brush down

            
            
Suggest correction
Creating personal tab
Creating personal tab
You can edit any tab online and save it as your Personal.

You can edit, replace or remove any tab part or add personal notes – all changes will be seen only by you.

Personal tabs can be accessed anytime from any device, even offline.
Learn more »
comments
print report bad tab
guest
You may want to rate the tab now too:
select rating
Wanna post a correction for this tab? Suggest correction