Oops, an error
Loading. Please wait.

Lock And Load Tab

version 1
version 1

Whole song

Interactive

67 views 1 this week
no commentswrite comment
1 2 3 4 5
3 more votes to show rating
add to favorites
launch autoscroll
font size
0
reset
how to read this tab
guitar tuner
Autoscroll
slow
fast
+/-
esc
set tempo
stop
Help us to improve Ultimate-Guitar.com Take our survey!
×
Author
Difficulty
Tuning
intermediate
B F# B E G# C#
[Lock & Load]
[Transit Blues]
[The Devil Wears Prada]

Tuning: B Gb B E Ab Db
Playthrough: https://www.youtube.com/watch?v=JVx7XyC080E

[Riff 1] - [00:03] - [00:38] - [x2]
- ---------------------------------------------------------------------
- ---------------------------------------------------------------------
- ---------------------------------------------------------------------
- -2-2-2-2-2-2-2-2-2-2-2-2-2-2-2-2-222-2-2-2-2-2-2-------7---------5~--
- -x-x-x-x-x-x-x-x-x-x-x-x-x-x-x-x-xxx-x-x-x-x-x-x---------8p5---------
- -1-1-1-1-1-1-1-1-1-1-1-1-1-1-1-1-111-1-1-1-1-1-1-0h1/6-------0h1~----
PM ...............................................

- ---------------------------------------------------------------------------------------------
- ---------------------------------------------------------------------------------------------
- ---------------------------------------------------------------------------------------------
- -2-2-2-2-2-2-2-2-2-2-2-2-2-2-222-2-2-2-2-2-2-------7---------------5~----------7~--------7~--
- -x-x-x-x-x-x-x-x-x-x-x-x-x-x-xxx-x-x-x-x-x-x---------8p5-------------------------------------
- -1-1-1-1-1-1-1-1-1-1-1-1-1-1-111-1-1-1-1-1-1-0h1/6-------0h1-1~----------3~----------3~------
PM ...........................................

[Riff 2] - [00:38] - [
- -----------------------------------------------------------------
- -----------------------------------------------------------------
- -----------------------------------------------------------------
- -4---4-4-4-4-4---4-4-4-4-444-444-4---4-4-4-4-----4---------------
- -x---x-x-x-x-x---x-x-x-x-xxx-xxx-x---x-x-x-x-------0h6-5-3-------
- -1---1-1-1-1-1---1-1-1-1-111-111-1---1-1-1-1-0h1-----------7-0h1-
PM     .......     ...............     .......

- -----------------------------------------------------------------
- -----------------------------------------------------------------
- -----------------------------------------------------------------
- -4---4-4-4-4-4---4-4-4-4-----4---4---4-4-4-4-----4---------------
- -x---x-x-x-x-x---x-x-x-x---------x---x-x-x-x-------0h6-5-3-------
- -1---1-1-1-1-1---1-1-1-1-0h1---0-1---1-1-1-1-0h1-----------7-0h1-
PM     .......     .......             .......


[Riff 3a, Guitar 1 & 2] - [00:52] - [01:21]
- -----------------------------------------------------------------
- -------------------------------------------------------------6---
- -----------------------------------------------------------------
- -4b----4-----------------------------------------8---7---8-------
- ---------6-------6---5---6---------------------------------------
- -----------------------------8---7b----7-7-----------------------
-
- -----------------------------------------------------------------
- -----------------------------------------------------------------
- -----------------------------------------------------------------
- -------4-------------------------------3---------------8\--------
- -----------------------------------------------------------------
- -1-------------------------------0---------------4---------------


- -----------------------------------------------------------------
- -6b--------------------------------------------------------------
- -----------------------------------------------------------------
- -----------------------------------------------------------------
- -----------------6---5---6---------------------------------------
- -----------------------------8---7b----7-7\------4---------------
-
- -----------------------------------------------------------------
- -----------------------------------------------------------------
- -----------------------------------------------------------------
- -------3b------------------------------3---------------8\--------
- -----------------------------------------------------------------
- -1-------------------------------0---------------4---------------


- -----------------------------------------------------------------
- -------------------------------------------------------------6---
- -----------------------------------------------------------------
- -4b----4-----------------------------------------8---7---8-------
- ---------6-------6---5---6---------------------------------------
- -----------------------------8---7b----7-7-----------------------
-
- -----------------------------------------------------------------
- -----------------------------------------------------------------
- -----------------------------------------------------------------
- -------4-------------------------------3---------------8\--------
- -----------------------------------------------------------------
- -1-------------------------------0---------------4---------------


- ---------------------------------------------------------------------------------
- -6b------------------------------------------------------------------------------
- ---------------------------------------------------------------------------------
- ---------------------------------------------------------------------------------
- -----------------6---5---6-------------------------------------------------------
- -----------------------------8---7b----7-7\------4-------------------------------
-
- ---------------------------------------------------------------------------------
- ---------------------------------------------------------------------------------
- ---------------------------------------------------------------------------------
- -------3b------------------------------3-----------------------------------------
- ---------------------------------------------------------------------------------
- -1-------------------------------0-----------------------------------------------


[Riff 3b] - [01:14] - [01:21] - [x2]
- -----------------------------------------
- -----10-10-10-10-10/11~------------------
- -----------------------------------------
- -----------------------------------------
- -----------------------------------------
- -----------------------------------------


[Riff 4a] - [01:21] - [01:35]
- ----------------------------------------------------------------------
- ----------------------------------------------------------------------
- ----------------------------------------------------------------------
- -2-2-2-2-2-2-222-2-2-2-2-2-2-2-2-2-2-2-2-2-2-2-2-------7----------5~--
- -x-x-x-x-x-x-xxx-x-x-x-x-x-x-x-x-x-x-x-x-x-x-x-x---------8p5----------
- -1-1-1-1-1-1-111-1-1-1-1-1-1-1-1-1-1-1-1-1-1-1-1-0h1/6-------0h1~-----
PM ...............................................

- -------------------------------------------------------------
- -------------------------------------------------------------
- -------------------------------------------------------------
- -2-2-2-2-222-2-2-2-2-2-2-2-2-2-2-2-2-2-2-2-2-------7---------
- -x-x-x-x-xxx-x-x-x-x-x-x-x-x-x-x-x-x-x-x-x-x---------8p5-----
- -1-1-1-1-111-1-1-1-1-1-1-1-1-1-1-1-1-1-1-1-1-0h1/6-------0h1-
PM ...........................................

[Riff 4b] - [01:21] - [01:35] - [x2]
- -----------------------------------------------------------------
- -16br----------------------------16br--------15v-----------------
- -----------------------------------------------------------------
- -----------------------------------------------------------------
- -----------------------------------------------------------------
- -----------------------------------------------------------------

[Riff 5] - [01:35] - [01:49]
- -----------------------------------------------------------------
- -----------------------------------------------------------------
- -----------------------------------------------------------------
- -5---2-2-2-2-222-222-2-2-2-2-222-222-2-2-2-2-2-2-------7---------
- -x---x-x-x-x-xxx-xxx-x-x-x-x-xxx-xxx-x-x-x-x-x-x---------8p5-----
- -1---1-1-1-1-111-111-1-1-1-1-111-111-1-1-1-1-1-1-01h/6-------0h1-
PM     ...........................................

- -----------------------------------------------------------------
- -----------------------------------------------------------------
- -----------------------------------------------------------------
- -5---2-2-222-2-2-222-2-2-2-2-222-222-2-----------7-7-7-7-7-7-7-7-
- -x---x-x-xxx-x-x-xxx-x-x-x-x-xxx-xxx-x-----------5-5-5-5-5-5-5-5-
- -1---1-1-111-1-1-111-1-1-1-1-111-111-1-1-1-1-1-1-0-0-0-0-0-0-0-0-
PM     .................................

[Ra Ra Ra] - [01:49] - [01:55]


[Riff 6, Guitar 1 & 2] - [01:49] - [02:30]
- -------------------------------------------------------------------------------------------------
- -11-11-11-11-11-11-11-11-11-11-11-11-11-11-11-11-11-11-11-11-11-11-11-11-11-11-11-11-11-11-11-11-
- -12-12-12-12-12-12-12-12-12-12-12-12-12-12-12-12-12-12-12-12-12-12-12-12-12-12-12-12-12-12-12-12-
- -------------------------------------------------------------------------------------------------
- -------------------------------------------------------------------------------------------------
- -------------------------------------------------------------------------------------------------
-
- -------------------------------------------------------------------------------------------------
- -------------------------------------------------------------------------------------------------
- -------------------------------------------------------------------------------------------------
- -5~----------------------------------------------------------------------------------------5\----
- -5~----------------------------------------------------------------------------------------5\----
- -5~----------------------------------------------------------------------------------------5\----


- -------------------------------------------------------------------------------------------------
- -11-11-11-11-11-11-11-11-13-13-13-13-13-13-13-13-15-15-15-15-15-15-15-15-15-15-15-15-15-15-15-15-
- -12-12-12-12-12-12-12-12-12-12-12-12-12-12-12-12-12-12-12-12-12-12-12-12-12-12-12-12-12-12-12-12-
- -------------------------------------------------------------------------------------------------
- -------------------------------------------------------------------------------------------------
- -------------------------------------------------------------------------------------------------
-
- -------------------------------------------------------------------------------------------------
- -------------------------------------------------------------------------------------------------
- -------------------------------------------------------------------3-----------------------------
- -1--------1-----------------------------------3--0--------0-----------5--4--------4--------4--5--
- -1--------1--------------------------------------0--------0--------------4--------4--------4--5--
- -1--------1--------------------------0--1--2-----0--------0--------------4--------4--------4--5--


- -------------------------------------------------------------------------------------------------
- -11-11-11-11-11-11-11-11-13-13-13-13-13-13-13-13-15-15-15-15-15-15-15-15-16-16-16-16-10-10-10-10-
- -12-12-12-12-12-12-12-12-12-12-12-12-12-12-12-12-12-12-12-12-12-12-12-12-12-12-12-12-12-12-12-12-
- -------------------------------------------------------------------------------------------------
- -------------------------------------------------------------------------------------------------
- -------------------------------------------------------------------------------------------------
-
- -------------------------------------------------------------------------------------------------
- -------------------------------------------------------------------------------------------------
- -------------------------------------------------------------------3-----------------------------
- -1--------1-----------------------------------3--0--------0-----------5--4--------4--------4--5--
- -1--------1--------------------------------------0--------0--------------4--------4--------4--5--
- -1--------1--------------------------0--1--2-----0--------0--------------4--------4--------4--5--


- -------------------------------------------------------------------------------------------------
- -11-11-11-11-11-11-11-11-13-13-13-13-13-13-13-13-15-15-15-15-15-15-15-15-15-15-15-15-15-15-15-15-
- -12-12-12-12-12-12-12-12-12-12-12-12-12-12-12-12-12-12-12-12-12-12-12-12-12-12-12-12-12-12-12-12-
- -------------------------------------------------------------------------------------------------
- -------------------------------------------------------------------------------------------------
- -------------------------------------------------------------------------------------------------
-
- -------------------------------------------------------------------------------------------------
- -------------------------------------------------------------------------------------------------
- -------------------------------------------------------------------3-----------------------------
- -1--------1-----------------------------------3--0--------0-----------5--4--------4--------4--5--
- -1--------1--------------------------------------0--------0--------------4--------4--------4--5--
- -1--------1--------------------------0--1--2-----0--------0--------------4--------4--------4--5--


- -------------------------------------------------------------------------------------------------
- -11-11-11-11-11-11-11-11-13-13-13-13-13-13-13-13-15-15-15-15-15-15-15-15-15-16-------------------
- -12-12-12-12-12-12-12-12-12-12-12-12-12-12-12-12-12-12-12-12-12-12-12-12-12-12-------------------
- -------------------------------------------------------------------------------------------------
- -------------------------------------------------------------------------------------------------
- -------------------------------------------------------------------------------------------------
-
- -------------------------------------------------------------------------------------------------
- -------------------------------------------------------------------------------------------------
- -------------------------------------------------------------------------------------------------
- -1--------1-----------------------------------3--0--------0--------------------------------------
- -1--------1--------------------------------------0--------0--------------------------------------
- -1--------1--------------------------0--1--2-----0--------0--------------------------------------


[Riff 7a, Guitar 1 & 2] - [02:30] - [03:16] - [x2]
- -----------------------------------------------------------------
- -------------------------------------------------------------6---
- -----------------------------------------------------------------
- -4b----4-----------------------------------------8---7---8-------
- ---------6-------6---5---6---------------------------------------
- -----------------------------8---7b----7-7-----------------------
-
- -----------------------------------------------------------------
- -----------------------------------------------------------------
- -----------------------------------------------------------------
- -------4-------------------------------3-------------------------
- -----------------------------------------------------------------
- -1-------------------------------0-------------------------------


- -----------------------------------------------------------------
- -6b--------------------------------------------------------------
- -----------------------------------------------------------------
- -----------------------------------------------------------------
- -----------------6---5---6---------------------------------------
- -----------------------------8---7b----7-7\------4---------------
-
- -----------------------------------------------------------------
- -----------------------------------------------------------------
- -----------------------------------------------------------------
- -------3b------------------------------3-------------------------
- -----------------------------------------------------------------
- -1-------------------------------0-------------------------------

[Riff 3b] - [02:30] - [03:16] - [x4]

[Symbols]

PM... Palm Mute notes with (...) under them
AP... Alternate Pick notes with (...) under them
h     Hammer On
p     Pull Off
[ ]   Harmonic
/     Slide Up
\     Slide Down
x     Dead Note
b     Bend
p     Pre-Bend
r     Release Bend
(x )  Play Notes x amount of times
~     Let Ring
/ 3 \ Notes are triplets (3 notes in the space of two)
w\    Whammy Bar Down
w/    Whammy Bar Up
T     Right Hand Tap

:)
Suggest correction
Give kudos to tab author, rate the tab!
1 2 3 4 5
comments
print report bad tab
guest
You may want to rate the tab now too:
select rating
Wanna post a correction for this tab? Suggest correction