Oops, an error
Loading. Please wait.

Louder Than Thunder tab

version 3
version 3

Whole song

Interactive

4,196 views 3 this week
2 commentsread comments
1 2 3 4 5
1 last vote to show rating
add to favorites
×
Save as Personal and add changes to this tab that will be seen only by you. Learn more ›
×
You can save this tab as Personal to edit and correct it or add notes. All changes will be seen only by you. Learn more »
launch autoscroll
font size
0
reset
how to read this tab
guitar tuner
edit
Autoscroll
slow
fast
+/-
esc
set tempo
stop
              Louder than Thunder - The Devil Wears Prada
--------------------------------------------------------------------------------------------|
Tabbed by:Malichi Merski
Email:Reptar.dude@yahoo.com

Honestly, I don't think there's a guitar in this song at all so you just
gotta work with ya got which is everything below...As for the violin, if
you really want to play it you have to pay super close attention to it in
order to play it right and I believe its only audible in the intro =]


Tuning:Drop D

Violin converted to guitar:
e|-------------------------------------------------------------------------|
B|-------------------------------------------------------------------------|
G|-------------------------------------------------------------------------|
D|9v--9/11-11/12-12\11-11\9-9\7--7/9v--9-4-2-0-2v---2/9-11-12--------------|
A|------------------------------------------------------------10-9-7-5-3-2-|
D|-------------------------------------------------------------------------|

Piano/Keyboard converted to guitar
e|10-9-7-----------7~---7-9-10-9~--------7~--------------------------------|
B|-------7~---7-10------------------7-10-----------------------------------|
G|-------------------------------------------------------------------------|
D|-------------------------------------------------------------------------|
A|-------------------------------------------------------------------------|
D|-------------------------------------------------------------------------|

0:24        Bb  G Bb  G
e|--------|--1--3--1--3----------------------------------------------------|
B|--------|--1--2--1--2----------------------------------------------------|
G|--------|--3--0--3--0----------------------------------------------------|
D|9-5-9-5-|--3--0--3--0----------------------------------------------------|
A|9-5-9-5-|--3--2--3--2----------------------------------------------------|
D|9-5-9-5-|--x--x--x--x----------------------------------------------------|

Chorus
0:48 [Some kind of delay/distortion]
Part A               Part B
e|10-9--12-10--14-12-|-14/17~--14~--12-14-10---9-10-7---7-9-10-------------|
B|-------------------|-----------------------------------------------------|
G|-------------------|-------------Repeat Part B---------------------------|
D|-------------------|-----------------------------------------------------|
A|-------------------|-----------------------------------------------------|
D|-------------------|-----------------------------------------------------|

Chorus
0:48        G E Bb A
e|--------|-3---1--x-------------------------------------------------------|
B|--------|-2---1--2-------------------------------------------------------|
G|--------|-0-1-3--2-------------------------------------------------------|
D|5-2-9-7-|-0-2-3--2-------------------------------------------------------|
A|5-2-9-7-|-2-2-3--0-------------------------------------------------------|
D|5-2-9-7-|-x-x-x--x-------------------------------------------------------|

Chorus Rhyhthm Bb  G Bb  G
e|----------|---1--3--1--3------------------------------------------------|
B|----------|---1--2--1--2------------------------------------------------|
G|----------|---3--0--3--0------------------------------------------------|
D|9-5-9-5---|---3--0--3--0------------------------------------------------|
A|9-5-9-5---|---3--2--3--2------------------------------------------------|
D|9-5-9-5---|---x--x--x--x------------------------------------------------|

Part A                      Part B
e|7-9-10-9-10-12-10-12-14-12|-14/17~--14~--12-14-10---9-10-7---7-9-10------|
B|--------------------------|----------------------------------------------|
G|--------------------------|-------------Repeat Part B--------------------|
D|--------------------------|----------------------------------------------|
A|--------------------------|----------------------------------------------|
D|--------------------------|----------------------------------------------|

May update the solo but ran out of time so I'll get to it eventually...maybe.
It's pretty simple so I'll do my best

            
            
Suggest correction
Creating personal tab
Creating personal tab
You can edit any tab online and save it as your Personal.

You can edit, replace or remove any tab part or add personal notes – all changes will be seen only by you.

Personal tabs can be accessed anytime from any device, even offline.
Learn more »
Give kudos to tab author, rate the tab!
1 2 3 4 5
comments
print report bad tab
2 comments total.
0 reply
downfromthesky 223 Sep 03, 2010 03:00 PM

the part at 0:24 i think the chords are wrong, that doesn't look like a Bb or a G...

0 reply
Reptar.Dude 73 Sep 04, 2010 07:45 PM

Well...Haha these are tabs; Not chords and its for that exact reason. i suck at remembering chords :)

guest
You may want to rate the tab now too:
select rating
Wanna post a correction for this tab? Suggest correction