Oops, an error
Loading. Please wait.

Number Three Never Forget intro tab

version 1
version 1

Intro

Whole song

1,386 views 1 this week
4 commentsread comments
1 2 3 4 5
2 more votes to show rating
add to favorites
×
Save as Personal and add changes to this tab that will be seen only by you. Learn more ›
×
You can save this tab as Personal to edit and correct it or add notes. All changes will be seen only by you. Learn more »
launch autoscroll
font size
0
reset
how to read this tab
guitar tuner
edit
Autoscroll
slow
fast
+/-
esc
set tempo
stop
Difficulty
(2:17)
E|---------------------|----------------------------------|
B|---------------------|----------------------------------|
G|---10----------------|----------------------------------|
D|---x---8--1010 1010--|------------------X2--------------|
A|-0-8-0-8-0-xx- x-x---|----------------------------------|
D|-0---0-8-0-88- 8-8---|--10p08p07p08p0-------------------|

(0:28) work out the strumming
E|---------------------|
B|---------------------|
G|---------------------|
D|-88888-101010--------|
A|-88888-101010--------|
D|-88888-101010--------|


E|---------------------|
B|---------x3----------|
G|---10----------------|
D|---x---8--1010 1010--|
A|-0-8-0-8-0-xx- x-x---|
D|-0---0-8-0-88- 8-8---|


on the last round play this
E|---------------------|
B|---------------------|
G|---10----------------|
D|---x---8-10----------|
A|-0-8-0-8-10----------|
D|-0---0-8-10----------|

last part
E|---------------------------|
B|---------------------------|
G|---------------------------|
D|--------------8-----8------|
A|-0-----0------8-----8------|
D|-0-----0------8-----8------|
Suggest correction
Creating personal tab
Creating personal tab
You can edit any tab online and save it as your Personal.

You can edit, replace or remove any tab part or add personal notes – all changes will be seen only by you.

Personal tabs can be accessed anytime from any device, even offline.
Learn more »
Give kudos to tab author, rate the tab!
1 2 3 4 5
comments
print report bad tab
4 comments total. Showing first comments.
+1 reply
rockstarbowker 283 Jan 24, 2008 11:37 AM

This isnt the into it's the end.......

0 reply
Madne$$ 10 Mar 07, 2008 03:34 AM

yh i made that mistake when i done this.

sorry :(.

Thomas

0 reply
Hurlinator69 37 Mar 11, 2008 10:57 AM

you suck...no offense ...if it is the intro,, it sucks

guest
Wanna post a correction for this tab? Suggest correction