Oops, an error
Loading. Please wait.

Number Three Never Forget tab

version 1
version 1

Whole song

3,648 views 1 this week
4 commentsread comments
1 2 3 4 5
x 5
add to favorites
×
Save as Personal and add changes to this tab that will be seen only by you. Learn more ›
×
You can save this tab as Personal to edit and correct it or add notes. All changes will be seen only by you. Learn more »
launch autoscroll
font size
0
reset
how to read this tab
guitar tuner
edit
Autoscroll
slow
fast
+/-
esc
set tempo
stop
This isn't the whole song but one little riff that I easily found out and I'm almost 
positive this is correct.


(0:28)
E|---------------------|----------------------------------|
B|---------------------|----------------------------------|
G|---------------------|----------------------------------|
D|---------------------|----------------------------------|
A|---------------------|----------------------5h8p5-4h7p4-|
D|-000-000-0-0-000-000-|--000-000-0-0-000-000-------------|

E|------------------------------------|------|
B|------------------------------------|------|
G|----------------------------------x2|--7~--|END ON
D|------------------------------------|--x~--|
A|----------------------8-5-7-4-------|--5~--|
D|-000-000-0-0-000-000---0-0-0--------|------|
                         * * *
Not the greatest tabber but that's what I got. The triplets and such I'm not sure of 
exact timing but that's a good idea, just listen to the song to get the rhythm.

            
            
Suggest correction
Creating personal tab
Creating personal tab
You can edit any tab online and save it as your Personal.

You can edit, replace or remove any tab part or add personal notes – all changes will be seen only by you.

Personal tabs can be accessed anytime from any device, even offline.
Learn more »
comments
print report bad tab
4 comments total. Showing first comments.
0 reply
ZenD- 10 Mar 16, 2008 01:33 PM

thats really close dude gj

0 reply
emolove 30 Apr 23, 2008 12:00 PM

man if ur gonna post a tab...post the whole ****ing tab!
i hate partial tabs!!!

0 reply
neilcampbell3 10 Jun 24, 2008 07:49 AM

ya this sucks

guest
You may want to rate the tab now too:
select rating
Wanna post a correction for this tab? Suggest correction