Oops, an error
Loading. Please wait.

Patterns Of A Horizon album tab

2,286 views 1 this week
no commentswrite comment
1 2 3 4 5
3 more votes to show rating
add to favorites
×
Save as Personal and add changes to this tab that will be seen only by you. Learn more ›
×
You can save this tab as Personal to edit and correct it or add notes. All changes will be seen only by you. Learn more »
launch autoscroll
font size
0
reset
how to read this tab
guitar tuner
edit
Autoscroll
slow
fast
+/-
esc
set tempo
stop
1-The Ascent
2-Gauntlet Of Solitude [rockonmetal83]
3-And The Sentence Trails Off [Ian_from_GI]
4-Rosemary Had An Accident [Aaron_Stinson]
5-Redemption
6-Swords, Dragons, Diet Coke [Wes_Stanford]
7-Who Speaks Spanish? Colon Quesadilla [theFall of Lirby]
8-Modify The Pronounciation [unregistered]
9-Salvation [punkkid1582]

---The Ascent N/A---


----------------------------------------------------------------------------
                  Gauntlet Of Solitude - The Devil Wears Prada
----------------------------------------------------------------------------
Tabbed by: rockonmetal83
Email: therabbit99999@yahoo.com

Tuning: Drop D

Intro
e|---------|
B|---------|
G|---------|
D|-0~------|
A|-0~------|
D|-0~--/17-|


e|----------------------------|---------------------|
B|----------------------------|---------------------|
G|----------------------------|-----------------17~-|
D|----------14-15-17-15-14h15-|---------14-15-17----|
A|----14-15-------------------|---14-15-------------|
D|-00---0--0--0--0--0--0------|-00--0--0--0--0------|
P.M..   .  .  .  .  .  .        ..  .  .  .  .

e|--------------------------|
B|--------------------------|
G|----------13-14-16-14-----|    (They do something at the end of the riff
D|----13-14-----------------|     during the verse which i cant figure out)
A|--------------------------|
D|-00---0--0--0--0--0--0----|
P.M..   .  .  .  .  .  .


0:24                         V- Scrape your pick lighly across these
e|------------------------------|
B|---------------------------3~-|
G|-10-10-10-10-10~-----------2~-|
D|-x--x--x--x--x---------0~--0~-|
A|-8--8--8--8--8~--------0~-----|
D|-----------------------0~-----|

0:38
e|---------------------------------|----------------------------|
B|---------------------------------|----------------------------|
G|---------5-4-3-2-----------------|---------5-4-3-2------------|
D|-----------------5-4-3-2---------|-----------------5-4-3-2----|
A|-0-0-0-0-----------------5-4-3-2-|-0-0-0-0--------------------|
D|-0-0-0-0-------------------------|-0-0-0-0-----------------3*-|(End on 3*)
P.M. . . .                           . . . .             (Slight)


0:51  This parts a little off I think.
e|------------------------------------------------------------------|
B|------------------------------------------------------------------|
G|------------------------------------------------10----------------|
D|------------------------------------------------x-----------------|
A|-0-0-10p0-8p0-0-0-0-10p0-8p0-7p0-0-0-10p0-8p0-0-8-0-10p0-8p0-12p0-|
D|-0-0----------0-0-0--------------0-0----------0---0---------------|
P.M. .          .   .              . .          .   .


0:58
e|-------------------------------|
B|-------------------------------|
G|-10-10-12-12-14-14-17-18-18\\\-|
D|-x--x--x--x--x--x--x--x--x-----|
A|-8--8--10-10-12-12-15-16-16\\\-|
D|-------------------------------|


1:01
e|-------------------------------------------------------------------|
B|-------------------------------------------------------------------|
G|-------------------------------------------------------------------|
D|-0000000000000--1010101010101010--0000000000000000--10101010101010-|
A|-0000000000000--8888888888888888--0000000000000000--88888888888888-|
D|-0000000000000--8888888888888888--0000000000000000--88888888888888-|


Clean - 1:13
e|----------------------------------------------------------------------|
B|----------------------------------------------------------------------|
G|----------------------------------------------------------------------|
D|-141414-121212-1010-999-101010-99-------------------------------------|
A|-121212-101010-8-8--777-8-8-8--77-888-101010-121212-888-101010-121212-|
D|----------------------------------888-101010-121212-888-101010-121212-|
P.M. . .  . . .  . .  ... . . .  .. ... . . .  . . .  ... . . .  . . .


1:52
e|-------------|
B|-------------|
G|-------------|
D|------101010-|
A|-0-0--8-8-8--|
D|-0-0--8-8-8--|
P.M. .


2:12!
e|-------------------------------------------------------------------------|
B|------------------------------11111111-----------------------------11--11|
G|------------------------------14141414-----------------------------14--14|
D|-------------------------------------------------------------------------|
A|-------------------------------------------------------------------------|
D|-00-00-00--00-00-00--00-00-00----------00-00-00--00-00-00--00-00-00--00--|
P.M.. .. ..  .. .. ..  .. .. ..          .. .. ..  .. .. ..  .. .. ..  ..


2:26
e|-----------------------------------------------------------------|
B|-----------------------------------------------------------------|
G|-----------------------------------------------------------------|
D|-----------------------------------------------------------------|
A|-------------------------------------------------------------0-0-|
D|-00-00-00----00-00-00----00-00-00----00-00-00----00-00-00----0-0-|
P.M.. .. ..    .. .. ..    .. .. ..    .. .. ..    .. .. ..


| /  slide up
| \  slide down
| h  hammer-on
| p  pull-off
| ~  vibrato
| +  harmonic
| x  Mute note
============================================================================

============================================================================
3- And The Sentence Trails Off
============================================================================


.  - palm mute           /  - slide up to
\  - slide down to       ~  - let ring
x  - Stuccatto           "  - tremolo note
h/p- hammer on/pull off  *  - pinch harmonic


|------------------------------------------------------------------------|--|
|-10-10-------10-10---------------10-10-------10-------------------------|--|
|-10-10-------10-10---------------10-10-------10-------------------------|--|
|-8--8--------8--8----------------8--8--------8-----------------0~-------|--|
|--------000---------000-000-000---------000------000-000-0-0-0-0~-------|--|
|--------000---------000-000-000---------000------000-000-0-0-0-0~-------|--|
         ...         ... ... ...         ...      ... ... . . .

|------------------------------------------------------------------------|--|
|------------------------------------------------------------------------|--|
|-7~--7--9~--9--10~-10--12~-12--10-10-10---------------------------------|--|
|------------------------------------------8~-88~-888~-88----------------|--|
|-5~--5--7~--7---8~--8--10~-10---8--8--8---8~-88~-888~-88-10-0-8-0-7-0---|--|
|------------------------------------------8~-88~-888~-88----------------|x2|

|-----------------------------------------|--|-----------------------|---|--|
|-----------------------------------------|--|-----------------------|---|--|
|-7------9------10------12------10-10-10--|--|-----------------------|---|--|
|-----------------------------------------|--|-8~-88~-888~-888~-888~-|---|0-|
|-5------7-------8------10-------8--8--8--|--|-8~-88~-888~-888~-888~-|---|0-|
|-----------------------------------------|--|-8~-88~-888~-888~-888~-|x3-|0-|
  x      x       x       x

|------------------------------------------|--|
|------------------------------------------|--|
|------------------------------------------|--|
|------------------------------------------|--|
|-0~-00000-0-0----00000-0-0-0-3-0-3-0-5h7--|--|
|-0~-00000-0-0----00000-0-0-0-3-0-3-0-5h7--|x2|
     ..... . .    ..... . . .   .   .

|------------------------------------------|--|
|------------------------------------------|--|
|------------------------------------------|--|
|------------------------------------------|--|
|-0~-00000-0-0~---00000-0-0-0-3-0-3-0-5h7--|--|
|-0~-00000-0-0~---00000-0-0-0-3-0-3-0-5h7--|x2|
     ..... . .    ..... . . .   .   .

|------------------------------------------|--|
|------------------------------------------|--|
|------------------------------------------|--|
|-0~-----------------8~--------------------|--|
|-0~-----------------8~--------------------|--|
|-0~-----------------8~--------------------|x2|
(After This Battle...)

|------------------------------------------|--|
|------------------------------------------|--|
|-----------------------14~----------------|--|
|-15~---------15~------------14~--14-14h15-|--|
|-------15~-------15~----------------------|--|
|------------------------------------------|x2|

|--------------------------------------------------------------|--|
|-10-10-------10-10---------------10-10-------10---------------|--|
|-10-10-------10-10---------------10-10-------10---------------|--|
|-8--8--------8--8----------------8--8--------8----0~----------|--|
|--------000---------000-000-000---------000-------0~----12\---|--|
|--------000---------000-000-000---------000-------0~----12\---|--|
         ...         ... ... ...         ...


|-------------------------------------------------------------------|--|
|-10-10-------10-10---------------10-10-------10--------------------|--|
|-10-10-------10-10---------------10-10-------10--------------------|--|
|-8--8--------8--8----------------8--8--------8---------------------|--|
|--------000---------000-000-000---------000------000-000-000-000---|--|
|--------000---------000-000-000---------000------000-000-000-000---|--|
         ...         ... ... ...         ...      ... ... ... ...

|-------------------------------------------------------------------|--|
|-10-10-------10-10---------------10-10-------10--------------------|--|
|-10-10-------10-10---------------10-10-------10--------------------|--|
|-8--8--------8--8----------------8--8--------8----0~---------------|--|
|--------000---------000-000-000---------000-------0~----12\--------|--|
|--------000---------000-000-000---------000-------0~----12\--------|--|
         ...         ... ... ...         ...

|-------------------------------------------------------------------|--|
|-10-10-------10-10---------------10-10-------10--------------------|--|
|-10-10-------10-10---------------10-10-------10--------------------|--|
|-8--8--------8--8----------------8--8--------8---------------------|--|
|--------000---------000-000-000---------000------000-000-000-000---|--|
|--------000---------000-000-000---------000------000-000-000-000---|--|
         ...         ... ... ...         ...      ... ... ... ...

|-------------------------------------------------------------------|--|
|-10-10-------10-10---------------10-10-------10--------------------|--|
|-10-10-------10-10---------------10-10-------10--------------------|--|
|-8--8--------8--8----------------8--8--------8----0~---------------|--|
|--------000---------000-000-000---------000-------0~----12\--------|--|
|--------000---------000-000-000---------000-------0~----12\--------|--|
         ...         ... ... ...         ...

|-------------------------------------------------------------------|--|
|-10-10-------10-10---------------10-10-------10--------------------|--|
|-10-10-------10-10---------------10-10-------10--------------------|--|
|-8--8--------8--8----------------8--8--------8---------------------|--|
|--------000---------000-000-000---------000------000-000-000-000---|--|
|--------000---------000-000-000---------000------000-000-000-000---|--|
         ...         ... ... ...         ...      ... ... ... ...

|--------------------------------------------------------|--|
|--------------------------------------------------------|--|
|--------------------------------------------------------|--|
|--------------------------------------------------------|--|
|-000--8-8--000--8-8--000--8h10--000--8-8--000--10-8-7-8-|--|
|-000-------000-------000--------000-------000-----------|--|
  ...       ...       ...        ...       ...   " " " "

|--------------------------------------------------------|--|
|--------------------------------------------------------|--|
|--------------------------------------------------------|--|
|-----------------------------------------------10-8-7-8-|--|
|-000--8-8--000--8-8--000--8h10--000--8-8--000-----------|--|
|-000-------000-------000--------000-------000-----------|--|
  ...       ...       ...        ...       ...   " " " "

|--------------------------------------------------------|--|
|--------------------------------------------------------|--|
|--------------------------------------------------------|--|
|--------------------------------------------------------|--|
|-000--8-8--000--8-8--000--8h10--000--8-8--000--10-8-7-8-|--|
|-000-------000-------000--------000-------000-----------|--|
  ...       ...       ...        ...       ...   " " " "

|--------------------------------------------------------|--|
|--------------------------------------------------------|--|
|--------------------------------------------------------|--|
|-----------------------------------------------10-8-7-8-|--|
|-000--8-8--000--8-8--000--8h10--000--8-8--000-----------|--|
|-000-------000-------000--------000-------000-----------|--|
  ...       ...       ...        ...       ...   " " " "

|-----------------------------------------------------------------|--|
|-----------------------------------------------------------------|--|
|-----------------------------------------------------------------|--|
|--------------------------------------------------8h10-8-7-8-7---|--|
|-----8---7---10-------8---7---10--8~---8-7-10-8-7--------------8-|--|
|-0-0---0---0----0-0-0---0---0-----8~-8---------------------------|x4|
  . .   .   .    . . .   .   .        .

|--------------------------------------------------------------------|--|
|--------------------------------------------------------------------|--|
|--------------------------------------------------------------------|--|
|-----------7p5----------------------------------------------7p5-----|--|
|-0~-0-0-0------7h8--0-0-0-000-000--3~-3-3-3--3-3-3-3-3-3-3------7p5-|--|
|-0~-0-0-0-----------0-0-0-000-000--3~-3-3-3--3-3-3-3-3-3-3----------|x4|
     . .               . . ... ...     . . .          . . .

|----------------------------------|--|
|----------------------------------|--|
|----------------------------------|--|
|-----------7p5--------------------|--|
|-0~-0-0-0------7h8--0-0-0-000-000-|--|
|-0~-0-0-0-----------0-0-0-000-000-|--|
     . .               . . ... ...

|-----------------------------------------------|--|
|-----------------------------------------------|--|
|-----------------------------------------------|--|
|-------------------------------7p0-5p0---------|--|
|----6-3-4-----6-3-4-----6-3-4----------8p0-7p0-|--|
|-4-4-4-4-4-4-4-4-4-4-4-4-4-4-4-----------------|--|
  . . . . . . . . . . . . . . .

|----------------------------------|--|
|----------------------------------|--|
|----------------------------------|--|
|-----------7p5--------------------|--|
|-0~-0-0-0------7h8--0-0-0-000-000-|--|
|-0~-0-0-0-----------0-0-0-000-000-|--|
     . .               . . ... ...

|-----------------------------------------------|--|----|
|-----------------------------------------------|--|----|
|-----------------------------------------------|--|----|
|-------------------------------7p0-5p0---------|--|-0~-|
|----6-3-4-----6-3-4-----6-3-4----------8p0-7p0-|--|-0~-|
|-4-4-4-4-4-4-4-4-4-4-4-4-4-4-4-----------------|x4|-0~-|
  . . . . . . . . . . . . . . .

|----------------------------|--|
|----------------------------|--|
|----------------------------|--|
|-----------------------5*---|--|
|-000---000-000-000--5p4-----|--|
|-000---000-000-000----------|x4|
  ...   ... ... ...

|----------------------------------|--|
|----------------------------------|--|
|----------------------------------|--|
|-77777777777777778888888888888888-|--|
|-77777777777777778888888888888888-|--|
|-77777777777777778888888888888888-|--|

|----------------------------------------------------------|--|
|-10\\-------10-10\\-----------10\\-------10-10\\----------|--|
|-10\\-------10-10\\-----------10\\-------10-10\\----------|--|
|-8\\\-------8--8\\\-----------8\\\-------8--8\\\----------|--|
|-------000-----------000-000--------000----------0000-0-0-|--|
|-------000-----------000-000--------000----------0000-0-0-|x2|
        ...           ... ...        ...          .... . .

|-----------------------|--|
|-----------------------|--|
|-----------------------|--|
|-----------------5*----|--|
|-000-000-000-5p4----0--|--|
|-000-000-000--------0--|--|
  ... ... ...        .


============================================================================
============================================================================
 4-                       ROSEMARY HAD AN ACCIDENT
                      As recorded by The Devil Wears Prada
              (From the 2005 Album DEAR LOVE: A BEAUTIFUL DISCORD)

Tabbed by: Aaron Stinson
E-mail: stinson.4@hotmail.com

Tuning: Drop D (D A D G B E)

(0:01 - 0:10)
Guitar I
|------------------------------------------------------------|
|------------------------------------------------------------|
|------------------------------------------------------------|
|---------------------------------------------------------9*-|
|-8p7---8p7---8p7---8p7-----------8p7---8p7---8p7---8p7------|
|-8p7-0-8p7-0-8p7-0-8p7-0-000-000-8p7-0-8p7-0-8p7-0-8p7-0----|
PM    .     .     .     . ... ...     .     .     .     .

Guitar II
|------------------------------------------------------------|
|------------------------------------------------------------|
|------------------------------------------------------------|
|------------------------------------------------------------|
|-8p7---8p7---8p7---8p7-----------8p7---8p7---8p7---8p7---0~-|
|-8p7-0-8p7-0-8p7-0-8p7-0-000-000-8p7-0-8p7-0-8p7-0-8p7-0-0~-|
PM    .     .     .     . ... ...     .     .     .     . .

then

Guitars I, II
|------------------------------------------------------------|
|------------------------------------------------------------|
|------------------------------------------------------------|
|------------------------------------------------------------|
|-8p7---8p7---8p7---8p7-----------8p7---8p7---8p7---8p7---0~-|
|-8p7-0-8p7-0-8p7-0-8p7-0-000-000-8p7-0-8p7-0-8p7-0-8p7-0-0~-|
PM    .     .     .     . ... ...     .     .     .     .

(0:11 - 0:20)
Guitar I
|----------------------------------|x4
|----------------------------------|
|-------------------------10-8-7---|
|-8-7-7-8-7-7-8-7-7-8-7-7--------7-|
|----------------------------------|
|----------------------------------|
PM. . . . . . . . . . . .  . . . .

Guitar II (after Guitar I x2)
|----------------------------------|x2
|----------------------------------|
|-8-7-7-8-7-7-8-7-7-8-7-7-10-8-7-7-|
|----------------------------------|
|----------------------------------|
|----------------------------------|
PM. . . . . . . . . . . .  . . . .

Guitar I ends on |----| Guitar II ends on |----|
                 |----|                   |----|
                 |----|                   |-7~-|
                 |-9*-|                   |----|
                 |----|                   |----|
                 |----|                   |----|

(0:21 - 0:30)
Guitar I
|------------------------------------------------------------|
|------------------------------------------------------------|
|------------------------------------------------------------|
|---------------------------------------------------------9*-|
|-8p7---8p7---8p7---8p7-----------8p7---8p7---8p7---8p7------|
|-8p7-0-8p7-0-8p7-0-8p7-0-000-000-8p7-0-8p7-0-8p7-0-8p7-0----|
PM    .     .     .     . ... ...     .     .     .     .

Guitar II
|------------------------------------------------------------|
|------------------------------------------------------------|
|------------------------------------------------------------|
|------------------------------------------------------------|
|-8p7---8p7---8p7---8p7-----------8p7---8p7---8p7---8p7---0~-|
|-8p7-0-8p7-0-8p7-0-8p7-0-000-000-8p7-0-8p7-0-8p7-0-8p7-0-0~-|
PM    .     .     .     . ... ...     .     .     .     . .

then

Guitars I, II
|------------------------------------------------------------|
|------------------------------------------------------------|
|------------------------------------------------------------|
|------------------------------------------------------------|
|-8p7---8p7---8p7---8p7-----------8p7---8p7---8p7---8p7---0~-|
|-8p7-0-8p7-0-8p7-0-8p7-0-000-000-8p7-0-8p7-0-8p7-0-8p7-0-0~-|
PM    .     .     .     . ... ...     .     .     .     .

(0:31 - 0:40)
Guitars I, II
|-------------------------|x4
|-------------------------|
|-------------------------|
|-------------------------|
|-1-0-0-1-0-0-0--000--000-|
|-1-0-0-1-0-0-0--000--000-|
PM  . .   . . .  ...  ...

(0:41 - 1:07)
Guitars I, II
|----------------------------|x4
|----------------------------|
|----------------------------|
|----------------------------|
|-1-0-0-1-0-0-0--000~--000~--|
|-1-0-0-1-0-0-0--000~--000~--|
PM  . .   . . .  ...   ...

Guitar I ends on |--------------|
                 |--------------|
                 |--------------|
                 |--------------|
                 |--------------|
                 |-00-0-0-0-3b*-|
                 PM.. . . .

(1:08 - 1:13)
Guitar I |-----------| Guitar II |-----------|
         |-----------|           |-----------|
         |-----------|           |-5~---7~---|
         |-3~---5~---|           |-x----x----|
         |-3~---5~---|           |-3~---5~---|
         |-3~---5~---|           |-----------|

(1:13 - 1:33)
Guitar I (Guitar II plays a chord behind this, but I can't figure it out.)
|---------------------------------------------------------------------------|
|---------------------------------------------------------------------------|
|-99999-99999-999-1111111111-1111111111-111111-1212121212-1212121212-121212-|
|-xxxxx-xxxxx-xxx--x-x-x-x-x--x-x-x-x-x--x-x-x--x-x-x-x-x--x-x-x-x-x--x-x-x-|
|-77777-77777-777--9-9-9-9-9--9-9-9-9-9--9-9-9-1010101010-1010101010-101010-|
|---------------------------------------------------------------------------|

(contd.)
|-----------------------|x2
|-----------------------|
|-11-11--11/12-12\11-11-|
|--x--x---x-----------x-|
|--9--9---------------9-|
|-----------------------|

(1:34 - 1:53)
Guitars I, II
|--------------------------------------------------|x2
|--------------------------------------------------|
|-9-9-9-9-11-11-11-11-11-12-12-12-12--11-11/12-12\-|
|-x-x-x-x--x--x--x--x--x--x--x--x--x---x-----------|
|-7-7-7-7--9--9--9--9--9-10-10-10-10---------------|
|--------------------------------------------------|

Both guitars end on |------|
                    |------|
                    |-/12~-|
                    |---x--|
                    |-/10~-|
                    |------|

(1:53 - 2:04)
Guitar I
|----------------------|
|----------------------|
|-9~---5~---12~---7~---|
|-x----x-----x----x----|
|-7~---3~---10~---5~---|
|----------------------|

Guitar II
|-------------------------|
|-------------------------|
|-12~----9~---19~---14~---|
|--x-----x-----x-----x----|
|--9~----7~---17~---12~---|
|-------------------------|

(2:05 - 2:13)
Guitar I
|--------------------------------------------------------------|
|--------------------------------------------------------------|
|-9-9-9-9-9-9-9999-5-5-5-5-5-5-5555-12-12-12-12-14-14-12121212-|
|-x-x-x-x-x-x-xxxx-x-x-x-x-x-x-xxxx--x--x--x--x--x--x--x-x-x-x-|
|-7-7-7-7-7-7-7777-3-3-3-3-3-3-3333-10-10-10-10-12-12-10101010-|
|--------------------------------------------------------------|

(contd.)
|---------------------------|
|---------------------------|
|-7--7--7--7--7--7--7-7-7-7-|
|-x--x--x--x--x--x--x-x-x-x-|
|-5--5--5--5--5--5--5-5-5-5-|
|---------------------------|

Guitar II
|--------------------------------------------------------------|
|--------------------------------------------------------------|
|-9-9-9-9-9-9-9999-5-5-5-5-5-5-5555-12-12-12-12-12-12-12121212-|
|-x-x-x-x-x-x-xxxx-x-x-x-x-x-x-xxxx--x--x--x--x--x--x--x-x-x-x-|
|-7-7-7-7-7-7-7777-3-3-3-3-3-3-3333-10-10-10-10-10-10-10101010-|
|--------------------------------------------------------------|

(contd.)
|----------------------------|
|----------------------------|
|--7--7--7--7--7--7--7-7-7-7-|
|--x--x--x--x--x--x--x-x-x-x-|
|--5--5--5--5--5--5--5-5-5-5-|
|----------------------------|

(2:14 - 2:24)
Guitar I
|---------------------------------------------------------------------|
|---------------------------------------------------------------------|
|---------------------------------------------------------------------|
|-----5-----5-----5-----5-----5\-----2-----2-----2-----2-----2-----2\-|
|-7-7---7-7---7-7---7-7---7-7----3-3---3-3---3-3---3-3---3-3---3-3----|
|---------------------------------------------------------------------|

(contd.)
|---------------------------------------------------------------|
|---------------------------------------------------------------|
|-----7-----7-----7-----7-----7\--------------------------------|
|-5-5---5-5---5-5---5-5---5-5--------7-----7-----7-----7-----7\-|
|--------------------------------5-5---5-5---5-5---5-5---5-5----|
|---------------------------------------------------------------|

Guitar II
|--------------------------------------------------------------|
|--------------------------------------------------------------|
|-9-9-9-9-9-9-9999-5-5-5-5-5-5-5555-12-12-12-12-14-14-12121212-|
|-x-x-x-x-x-x-xxxx-x-x-x-x-x-x-xxxx--x--x--x--x--x--x--x-x-x-x-|
|-7-7-7-7-7-7-7777-3-3-3-3-3-3-3333-10-10-10-10-12-12-10101010-|
|--------------------------------------------------------------|

(contd.)
|----------------------------|
|----------------------------|
|--7--7--7--7--7--7--7-7-7-7-|
|--x--x--x--x--x--x--x-x-x-x-|
|--5--5--5--5--5--5--5-5-5-5-|
|----------------------------|


Both guitars end on |----------|
                    |----------|
                    |-/12~~----|
                    |---x------|
                    |-/10~~----|
                    |----------|

(2:31 - 2:41)
Guitars I, II
|-------------------------------------------------------------|x2
|-------------------------------------------------------------|
|-------------------------------------------------------------|
|-------------------------------------------------------------|
|-0-0-0-0--0-0-0-8-8-8-8/10-10--0-0-0-0-0--0-0-0-8-8-8-8\7-7--|
|-0-0-0-0--0-0-0-8-8-8-8/10-10--0-0-0-0-0--0-0-0-8-8-8-8\7-7--|
PM. . . .  . . .                . . . . .  . . .

(2:42 - 2:51)
Guitars I, II
|-----------------------------------|x2
|-----------------------------------|
|-----------------------------------|
|-----------------------------------|
|-8p0-0-0-0--0-0---8p0-0-0-0--0-0---|
|-8p0-0-0-0--0-0---8p0-0-0-0--0-0---|

(2:52 - 3:09)
Guitars I, II
|---------------------|
|---------------------|
|---------------------|
|---------------------|
|-0x-0x-0x-0-0x-0~~~--|
|-0x-0x-0x-0-0x-0~~~--|

(3:10 - 3:23)
Guitars I, II
|------------------------------------------------------|
|------------------------------------------------------|
|--------------------------------------------------1p0-|
|----------------------------------------------1h2-----|
|---------5-4---0-0--0-0----------5-4------------------|
|-000-000-3-2---0-0--0-0--000-000-3-2---00-0-0---------|
PM... ...       . .  . .  ... ...       .. . .

(contd.)
|-----------------------------------------|
|-----------------------------------------|
|-----------------------------------------|
|-----------------------------------------|
|---------5-4---0-0--0-0----------5-4---0-|
|-000-000-3-2---0-0--0-0--000-000-3-2---0-|
PM... ...       . .  . .  ... ...       .

(3:24 - 3:50)
Guitars I, II
|------------------------------------------------|
|------------------------------------------------|
|--------------------------------------------1p0-|
|----------------------------------------1h2-----|
|---------5-4---0~----------5-4------------------|
|-000-000-3-2---1~--000-000-3-2---00-0-0---------|
PM... ...           ... ...       .. . .

(cont.)
|----------------------------------------------|x3
|----------------------------------------------|
|------------------------------------------1p0-|
|--------------------------------------1h2-----|
|---------5-4-------------5-4------------------|
|-000-000-3-2-----000-000-3-2---00-0-0---------|
PM... ...         ... ...       .. . .

(3:51 - 3:57)
Guitars I, II
|-----------------------|x2
|-----------------------|
|-----------------------|
|-----------------------|
|-000-00-000-000-000-00-|
|-000-00-000-000-000-00-|
PM... .. ... ... ... ..

(3:58 - 4:11)
Guitar I
|--------------------------------------------------|
|--------------------------------------------------|
|--------------------------------------------------|
|--------------------------------------------------|
|-000-000----000-000---------000-000----000-000----|
|-000-000----000-000---3b*---000-000----000-000----|
PM... ...    ... ...         ... ...    ... ...

Guitar II (doesn't play harmonic bend)
|--------------------------------------------------|
|--------------------------------------------------|
|--------------------------------------------------|
|--------------------------------------------------|
|-000-000----000-000---------000-000----000-000----|
|-000-000----000-000---------000-000----000-000----|
PM... ...    ... ...         ... ...    ... ...

(4:12 - 4:26)
Guitars I, II
|------------------------------------------------------------------|
|------------------------------------------------------------------|
|------------------------------------------------------------------|
|------------------------------------------------------------------|
|------------------------------------------------------------------|
|---------5-4~-----------5-4~-----------5-4~---0~-----------5-4~---|
|-000-000-3-2~---000-000-3-2~---000-000-3-2~---1~---000-000-3-2~---|

(4:27 - 5:11)
Guitars I, II
|-------------0-0-0-<7>----------------0--<7>--|
|-------------0-0-0-<7>----------------0--<7>--|
|-------------0-0-0--0-----------------0---0---|
|-------------0-0-0--0-----------------0---0---|
|-0~--0~--0~--------------0~--0~--0~-----------|
|-1~--1~--1~--------------1~--1~--1~-----------|
PM.   .   .               .   .   .

(contd.)
|-------------0-0-0-<7>---------------0-0-0-<7>--|
|-------------0-0-0-<7>---------------0-0-0-<7>--|
|-------------0-0-0--0----------------0-0-0--0---|
|-------------0-0-0--0----------------0-0-0--0---|
|-0~--0~--0~--------------0~--0~--0~-------------|
|-1~--1~--1~--------------1~--1~--1~-------------|
  .   .   .               .   .   .

Both guitars end on |---------|
                    |---------|
                    |---------|
                    |---------|
                    |-0~~~~---|
                    |-1~~~~---|
                      .

That's it. I know it's a little confusing, but it's also 100% correct!
Rate/comment please!
Enjoy!

LEGEND
----------
PM . = palm mute
x    = stop strings
<7>  = natural harmonic
3*   = pinch harmonic
b    = bend
3b*  = pinch harmonic bend
h    = hammer-on
p    = pull-off

=============================================================================
5- Redemption N/A
=============================================================================
=============================================================================

6- Swords, Dragons, And Diet Coke


Tabbed By: Wes Sanford

.  - palm mute           /  - slide up to
\  - slide down to       ~  - let ring
h/p- hammer on/pull off  *  - pinch harmonic

Tuning= Drop D         _Swords Dragons & Diet Coke_


E-------------------------------------------------------|
B-------------------------------------------------------|
G-----10-10p9-----2-2h3-----10-10p9-----2-2h3-3---------|
D-----10-10p9-----2-2h3-----10-10p9-----2-2h3-3---------|
A--0-----------0---------0-----------0------------------|
D--0-----------0---------0-----------0------------------|


E-------------------------------------------------------|
B-------------------------------------------------------|
G-----10-10p9-----2-2h3-----10-10p9---------------------|
D-----10-10p9-----2-2h3-----10-10p9----8-7-5-3----------|
A--7-----------7---------7------------------------------|
D--7-----------7---------7------------------------------|


E-------------------------------------------------------|
B-------------------------------------------------------|
G-----10-10p9-----2-2h3-----10-10p9-----2-2h3-3---------|
D-----10-10p9-----2-2h3-----10-10p9-----2-2h3-3---------|
A--8-----------8---------8-----------8------------------|
D--8-----------8---------8-----------8------------------|


E-------------------------------------------------------|
B-------------------------------------------------------|
G-----10-10p9-----2-2h3-----10-10p9---------------------|
D-----10-10p9-----2-2h3-----10-10p9------8-7-5-3--------|
A--10----------10--------10-----------------------------|
D--10----------10--------10-----------------------------|


  Guitar 1
E----------------------------------------------|
B----------------------------------------------|
G----------------------------------------------|  pick fast and
D--8-7-3-5-3-2-3-2-----8-7-8-10-8-7-8-7--------|  play 3 times
A----------------------------------------------|
D----------------------------------------------|


Guitar 2
E----------------------------------------------|  pick fast and
B----------------------------------------------|  play for the last
G--8-7-3-5-3-2-3-2-----8-7-8-10-8-7-8-7--------|  2 times that
D----------------------------------------------|  guitar 1 plays
A----------------------------------------------|
D----------------------------------------------|


Guitar 1             Guitar 2
E---------          E----------|
B---------          B----------|
G---7~----          G----------|
D---------          D----7~----|
A---------          A----------|
D---------          D----------|


E-------------------------------------------------------------|
B-------------------------------------------------------------|
G-------------------------------------------------------------|
D---3-0-3-0--00000-00000-00000-00000-00000-00000-00000-00000--|
A---3-0-3-0--00000-00000-00000-00000-00000-00000-00000-00000--|
D---3-0-3-0--00000-00000-00000-00000-00000-00000-00000-00000--|


E-------------------------------------------------------------|
B--------11-------------15-----------16----16----16----16-----|
G--------14-------------18--------19----19----19----19--------|
D---0000-----(4x)--0000-----(2x)------------------------------|
A---0000-----------0000---------------------------------------|
D---0000-----------0000---------------------------------------|


E----------------------------------------------|
B----------------------------------------------|
G----------------------------------------------|  play this 2x
D--0-0-0~----0000000--0-0----------0000--------|
A--0-0-0~----0000000--0-0---(4x)---0000---3*b--|
D--0-0-0~----0000000--0-0----------0000--------|


E--------------------------------------------------------|
B--------------------------------------------------------|
G--------------------------------------------------------|  play 4x
D-----------------------3p2-----------------2p0-3p0-2p0--|
A------5--3--2----3p2-----------5--3--2--3---------------|
D--0-0--0--0--000-----0-----0-0--0--0--0--0--------------|


 "And i will never be forgotten"
E-----------------------------|
B-----------------------------|
G--------7---5----3--2--------|
D--0-0---7---5----3--2--------|
A--0-0---5---3----1--0--------|
D--0-0------------------------|


E----------------------------------------------------|
B----------------------------------------------------|
G-------------------------14-----------------15------|
D--0--0000-0000-0000-000------0000-0000-000----------|
A--0--0000-0000-0000-000--12--0000-0000-000--13------|
D--0--0000-0000-0000-000------0000-0000-000-----0----|


E-----------------------------|
B-----------------------------|
G--------7---5----3--2--------|
D--0-0---7---5----3--2--------|
A--0-0---5---3----1--0--------|
D--0-0------------------------|


E----------------------------------------------------|
B----------------------------------------------------|
G-------------------------14-------------------------|
D--0--0000-0000-0000-000------0000-0000-000----------|
A--0--0000-0000-0000-000--12--0000-0000-000----------|
D--0--0000-0000-0000-000------0000-0000-000----------|


E----------------------------------------------------|
B----------------------------------------------------|
G-------------------------14-------------------------|
D--0--0000-0000-0000-000------0000-0000-000----------|
A--0--0000-0000-0000-000--12--0000-0000-000----------|
D--0--0000-0000-0000-000------0000-0000-000----------|

E---------------------------------------|
B---------------------------------------|
G---------------------------------------|  play 1x
D---7~-----10~------3~------5~----------|
A---7~-----10~------3~------5~----------|
D---7~-----10~------3~------5~----------|

Guitar 1                                   Guitar 2
E-----------------------------           E------------------|
B-----------------------------           B------------------|
G---10--9--14-----10--9--5---- play 1x   G----5------7------|  play 2x
D-----------------------------           D----5------7------|
A---8---7--12-----8---7--3----           A----3------5------|
D-----------------------------           D------------------|

  !.PLay the 2 below lines twice.!
E--------------------------------------------------------------------------|
B--------------------------------------------------------------------------|
G------9--9------9--9--9--9--9---------9--9-------------9--9--9--9--9------|
D--77--10-10--7--10-10-10-10-10--10-10-10-10--10-10-10--10-10-10-10-10-----|
A--77---------7------------------10-10--------10-10-10---------------------|
D--77---------7------------------10-10--------10-10-10---------------------|


E------------------------------------------------|
B-----3-3---3-3-3-3-3-----3-3----3-3-3-3-3-------|
G-----3-3---3-3-3-3-3-----3-3----3-3-3-3-3-------|
D--33-3-3-3-3-3-3-3-3--55-3-3--5-3-3-3-3-3-------|
A--33-----3------------55------5-----------------|
D--33-----3------------55------5-----------------|

 "With dead tongues....."
E---------------------------------------|
B---------------------------------------|
G---------------------------------------|
D---7~-----10~------3~------5~----------|
A---7~-----10~------3~------5~----------|
D---7~-----10~------3~------5~----------|


Guitar 1                                   Guitar 2
E-----------------------------           E------------------|
B-----------------------------           B------------------|
G---10--9--14-----10--9--5---- play 1x   G----5------7------|  play 2x
D-----------------------------           D----5------7------|
A---8---7--12-----8---7--3----           A----3------5------|
D-----------------------------           D------------------|


E---------------------------------------------------------------------|
B---------------------------------------------------------------------|
G---------------------------------------------------------------------|
D------------------------------------------------------------------0--|
A---------------------------------------------------------------5--0--|
D--0-000-000-000-000-000-000-000-00-5p3p0-5p3p0-5p3p0-5p3p0-5p3----0--|


"Your final days Approach" (3:12)


E----------------------         E----------------------|
B----------------------         B----------------------|
G---------------------- (3x)    G----------------------|
D--0--000-0--000-0-0---   then  D--0--000-0--000-------|
A--0--000-0--000-0-0---         A--0--000-0--000--3*b--|
D--0--000-0--000-0-0---         D--0--000-0--000-------|


E-----------------------|
B-----------------------|
G-----------------------| play 3x
D--0--222-3--222-2-2----|
A--0--222-3--222-2-2----|   then
D--0--222-3--222-2-2----|


E----------------------|
B----------------------|
G----------------------|
D--0--000-0--000-0-0---|
A--0--000-0--000-0-0---|
D--0--000-0--000-0-0---|

=============================================================================
=============================================================================
=============================================================================


7-"Who Speaks Spanish, Colon Quesadilla"

0:00-0:04
E------------------------------------------------|
B------------------------------------------------|
G-1414-14-14-14-1414-14-14-14-14-1414-14-14-1414-|
D-1313-13-13-13-1313-13-13-13-13-1313-13-13-1313-|
A-1212-12-12-12-1212-12-12-12-12-1212-12-12-1212-|
D------------------------------------------------|

0:04-0:16
E----------------------------|
B----------------------------|
G----------------------------|
D---------5-7---5-7---5-7----|
A-0-0-0-0~----0~----0~----0~-|
D-0-0-0-0~----0~----0~----0~-|
  . . . .     .     .     .

0:16-0:36
E-------------------------------------|
B-------------------------------------|
G-------------------------------------|
D-------------------------------------|
A-3p0-5p0-7p0-8p0-7p0-8p0-10-10-10-10-|
D-------------------------------------|
                                         x4
E-----------------------------|
B-----------------------------|
G-----------------------------|
D-8p7p0-10p0-8p7p0-10p0-8p7p0-|
A-----------------------------|
D-----------------------------|

0:36-0:45
E-8----8---8~--|
B--------------|
G--10~--10-----|  x4
D--------------|
A--------------|
D--------------|

0:45-1:07
E---------------------------------------|
B---------------------------------------|
G---------------------------------------|  x4
D-7------7---7---7-5-3------3---3---3-5-|
A-5-00-0-5-0-5-0-5-3-1-00-0-1-0-1-0-1-3-|
D---00-0---0---0-------00-0---0---0-----|
    .. .   .   .       .. .   .   .


0:57-1:07 (this part is played on top of above part after 2 times)
E-------------------------------------------|
B-------------------------------------------|
G-9-10-9-10-12-10-9-10-9-10-9-10-12-10-9-10-|
D-------------------------------------------|
A-------------------------------------------|
D-------------------------------------------|
                                                x2
E------------------------------------------|
B-----------10-------------------13--------|
G-9-10-9-10---10-9-10-9-10-9-10----10-9-10-|
D------------------------------------------|
A------------------------------------------|
D------------------------------------------|

1:07-1:10
E-----------------------------|
B-----------------------------|
G-7/9999/10101010101010-------|
D-x/xxxx/-x-x-x-x-x-x-x-\\\\\-|
A-5/7777/-8-8-8-8-8-8-8-\\\\\-|
D-----------------------\\\\\-|

1:10-1:28
E---------------------------------------|
B---------------------------------------|
G-----7/9999/101010101010---------------|
D-333-x/xxxx/-x-x-x-x-x-x-5555-55555555-|
A-333-5/7777/-8-8-8-8-8-8-5555-55555555-|
D-333---------------------5555-55555555-|
                                            x2
E------------------------------------|
B------------------------------------|
G-----7/9999/101010101010------------|
D-333-x/xxxx/-x-x-x-x-x-x-8888888888-|
A-333-5/7777/-8-8-8-8-8-8-8888888888-|
D-333---------------------8888888888-|

1:28-1:38
E-------------------|
B-------------------|
G-------------------|
D-0~-0-0~-0-0~-0-0~-|
A-0~-0-0~-0-0~-0-0~-|
D-0~-0-0~-0-0~-0-0~-|
     .    .    .

1:38-2:34
E------------------------------------------------------------------|
B-----10----10----12----13----13------10----10----12----13----13---|
G---10----10----10----10----10--10--10----10----10----10----10--10-| x6
D-12----12----12----12----12------11----11----11----11----11-------|
A------------------------------------------------------------------|
D------------------------------------------------------------------|

2:34-2:53 bass solo
E----------------------|
B----------------------|
G-101010101010-6666666-|
D--x-x-x-x-x-x-xxxxxxx-|
A--8-8-8-8-8-8-4444444-|
D----------------------|

2:53-3:03 Guitar 1
E------------------|
B------------------|
G------------------| x2
D-0~-0000000000000-|
A-0~-0000000000000-|
D-0~-0000000000000-|

Guitar 2
E-------------------------|
B--7-7-7-7-7-7--333333333-|
G-101010101010--666666666-| x2
D-------------------------|
A-------------------------|
D-------------------------|


3:03-3:22
E------------|
B------------|
G------------| x8
D------------|
A-0000-0000--|
D-0000-0000--|
  .... ....

3:22-3:35
E---------------------3//------5//--------------8\\------3//-|
B---------------------3//------5//--------------8\\------3//-|
G---------------------3//------5//--------------8\\------3//-|
D---------------------3//------5//--------------8\\------3//-|
A-5-3-2-3-2-1-0--0000-3//-0000-5//-5-3-2-3-0000-8\\-0000-3//-|
D-5-3-2-3-2-1-0--0000-3//-0000-5//-5-3-2-3-0000-8\\-0000-3//-|
  . . . . . . .  ....     ....             ....     ....

3:35-3:58
E------------------------------------|
B------------------------------------|
G-1010---1010---10--1616---17-171717-|  x4
D--9-9----9-9----9--1515---16-161616-|
A--8-8-0--8-8-0--8--1414-0-15-151515-|
D------0------0----------0-----------|
       .      .          .


============================================================================
============================================================================
============================================================================

8- Modify The Pronounciation

Tuning - Drop D


(0:00-0:13)
E|----------------------------------------------------|
B|----------------------------------------------------|
G|----------------------------------------------------|
D|--00000--0~---00000--0~---00000--0~---00000--0~-----|
A|--00000--0~---00000--0~---00000--0~---00000--0~-----|
D|--00000--0~---00000--0~---00000--0~---00000--0~-----|
    .....       .....       .....       .....
(0:14-0:27)
E|------------------------------------------------------------|
B|------------------------------------------------------------|
G|------------------------------------------------------------|
D|--0-4313-4313--0-4313-4313-----0-4313-4313--0-4313-4313--0--|
A|--0-4313-4313--0-4313-4313-----0-4313-4313--0-4313-4313--0--|
D|--0-4313-4313--0-4313-4313--3^-0-4313-4313--0-4313-4313--0--|
    . .... ....  . .... ....     . .... ....  . .... ....

(0:28-0:32)
E|--------------------------------------------------|
B|--------------------------------------------------|
G|----------------------------------5h7-3h5-2~------|
D|--------------------------------------------------|x1
A|---8-10-7-8-10-7-8-10-8-10-7-8--------------------|
D|----0--0-0-0--0-0-0--0-0--0-0---------------------|

(0:33-0:42)
E|-------------------------------------------------------|
B|-------------------------------------------------------|
G|-------------------------------------------------------|
D|-----------------------------------------------8-7~----|
A|---8-10-7-8-10-7-8-10-----------------8-10-7-8---------|
D|----0--0-0-0--0-0-0--0---x3---Then..---0--0-0----------|

fast..(0:43-0:51)
E|----------------------------------------------------------------------|
B|----------------------------------------------------------------------|
G|----------------------------------------------------------------------|
D|-----------------------------------------------------------------8-7~-|
A|---8x4-10x4-7x4-8x4-10x4-7x4-8x4-10x4----x3------8x4-10x4-7x4-8x4-----|
D|------------------------------------------Then..----------------------|

(0:52-1:04)
E|--------------------------------------|
B|--------------------------------------|
G|--------------------------------------|
D|--0-4-3-1--000-444-333-1--------------|x4
A|--0-4-3-1--000-444-333-1--------------|
D|--0-4-3-1--000-444-333-1--------------|
    . . .    ... ... ...

(1:05-1:11)
E|------------------------------|
B|------------------------------|
G|------------------------------|
D|-000-000-00-00-0-0-0-0-0-0----|x2
A|-000-000-00-00-0-0-0-0-0-0----|
D|-000-000-00-00-0-0-0-0-0-0----|
   ... ... .. .. . . . . . .

..Bass slide up

BREAKDOWN(1:12-1:24)
E|--------------------------------------|
B|----------12--------------------------|
G|----------15-------5-2-3--------------|
D|--000-000---00-00--5-2-3--OR--10-7-8--|
A|--000-000---00-00--3-0-1------10-7-8--|
D|--000-000---00-00-------------10-7-8--|
    ... ...   .. ..

(1:26-1:40)
E|------------------------------------------------------------------------|
B|------------------------------------------------------------------------|
G|------------------------------------------------------------------------|
D|-10-7-8-000-000-10-7-8-00-10-7-8-00--000-000-10-7-8---101010-999-101010-|
A|-10-7-8-000-000-10-7-8-00-10-7-8-00--000-000-10-7-8x2-101010-999-101010-|
D|-10-7-8-000-000-10-7-8-00-10-7-8-00--000-000-10-7-8---101010-999-101010-|

(1:41 to 2:15)
E|------------------------------------------------------------------|
B|------------------------------------------------------------------|
G|------------------------------------------------------------------|
D|-000-000-1010-000-000-99-000-000-1010-000-000---------------------|
A|-000-000-1010-000-000-99-000-000-1010-000-000-------9b------------|
D|-000-000-1010-000-000-99-000-000-1010-000-000-9p8p0---------------|

E|------------------------------------------------------------------|
B|------------------------------------------------------------------|
G|------------------------------------------------------------------|
D|-000-000-1010-000-000-99-000-000-1010-000-000---------------------|
A|-000-000-1010-000-000-99-000-000-1010-000-000---------------------|
D|-000-000-1010-000-000-99-000-000-1010-000-000-9p8p0-7-------------|

E|------------------------------------------------------------------|
B|------------------------------------------------------------------|
G|------------------------------------------------------------------|
D|-----------1010-----------99-----------1010-----------------------|
A|-----------1010-----------99-----------1010-----------------9b----|
D|-9p8p0-7p0-1010-9p8p0-7p0-99-9p7p0-7p0-1010-9p8p0-7p0-9p8p0-------|

E|------------------------------------------------------------------|
B|------------------------------------------------------------------|
G|------------------------------------------------------------------|
D|-----------1010-----------99-----------1010-----------------------|
A|-----------1010-----------99-----------1010-----------------9b----|
D|-9p8p0-7p0-1010-9p8p0-7p0-99-9p7p0-7p0-1010-9p8p0-7p0-9p8p0-------|

E|------------------------------------------------------------------|
B|------------------------------------------------------------------|
G|------------------------------------------------------------------|
D|-000-000-1010-000-000-99-000-000-1010-000-000---------------------|
A|-000-000-1010-000-000-99-000-000-1010-000-000-------9b------------|
D|-000-000-1010-000-000-99-000-000-1010-000-000-9p8p0---------------|

E|------------------------------------------------------------------|
B|------------------------------------------------------------------|
G|------------------------------------------------------------------|
D|---------1010---------99---------1010-----------------------------|
A|---------1010---------99---------1010---------------9b------------|
D|-9-8-7-0-1010-9-8-7-0-99-9-8-7-0-1010-9-8-7-0-9p8p0---------------|

(2:17...)
E|-----|
B|-----|
G|-----|
D|-0~--|
A|-0~--|
D|-0~--|

outro(2:33-4:19)
E|------------|
B|------------|
G|------------|
D|---8-7------|x6
A|-------8-5--|
D|------------|

E|--------------------|
B|--------------------|
G|----------------7---|
D|---87-----87--------|
A|-----8585---85h8----|
D|--------------------|

(4:20)
E|------|
B|------|
G|------|
D|--0~--|
A|--0~--|
D|--0~--|


===========================================================================
===========================================================================
============================================================================
9-Salvation

Key: / = slide up
     h = hammer on
     p = pull off
     ~ = Let Ring
Tuning: Drop D

Beginning:  (P.S.: I can't figure out the high part in the background, I'm guessing it's
along with the 17th fret on high E string, which is the thinnest for new players.)

E |-8~----5h6p5---8~-----8-5--5h6p5----8~-----5h6p5--5h6p5--|
B |---------------------------------------------------------|
G |---------------------------------------------------------|  x6
D |---------------------------------------------------------|
A |---------------------------------------------------------|
D |---------------------------------------------------------|


E |-----HEAVY PART/BREAKDOWN-----------------------------|
B |------------------------------------------------------|
G |------------------------------------------------------|
D |0000------0000---00000----0000------------------------|   x10
A |0000------0000---00000----0000------------------------|
D |0000------0000---00000----0000------------------------|


E |-----OUTRO---W/-COLE-FROM-GWEN-STACY------------------|
B |------------------------------------------------------|
G |------------------------------------------------------|  x3
D |0~--0~---0~------2/12\2-------------------------------|
A |0~--0~---0~------2/12\2-------------------------------|
D |0~--0~---0~------2/12\2-------------------------------|

E |----------FINAL-NOTES----------------------------------|
B |-------------------------------------------------------|
G |0~---0~----0~------------------------------------------|
D |0~---0~----0~------------------------------------------|
A |0~---0~----0~-----0~-----------------------------------|
D |0~---0~----0~-----0~-----------------------------------|
Suggest correction
Creating personal tab
Creating personal tab
You can edit any tab online and save it as your Personal.

You can edit, replace or remove any tab part or add personal notes – all changes will be seen only by you.

Personal tabs can be accessed anytime from any device, even offline.
Learn more »
Give kudos to tab author, rate the tab!
1 2 3 4 5
comments
print report bad tab
guest
Wanna post a correction for this tab? Suggest correction