Oops, an error
Loading. Please wait.

Praise Poison tab

version 1
version 1

Whole song

Interactive

181 views 1 this week
no commentswrite comment
1 2 3 4 5
2 more votes to show rating
add to favorites
×
Save as Personal and add changes to this tab that will be seen only by you. Learn more ›
×
You can save this tab as Personal to edit and correct it or add notes. All changes will be seen only by you. Learn more »
launch autoscroll
font size
0
reset
how to read this tab
guitar tuner
edit
Autoscroll
slow
fast
+/-
esc
set tempo
stop
[Praise Poison]
[Transit Blues]
[The Devil Wears Prada]

Tuning: B Gb B E Ab Db
Playthrough: https://www.youtube.com/watch?v=8Kvv9m5Ra30


[Riff 1, Guitar 1 & 2] - [00:00] - [00:43]
- -----------------------------------------------------------------
- -----------------------------------------------------------------
- -----------------------------------------------------------------
- -----------------------------------------------------------------
- -----------------------------------------------------------------
- -----------------------------------------------------------------
-
- -----------------------------------------------------------------
- -----------------------------------------------------------------
- -----------------------------------------------------------------
- -----------------------------------------------------------------
- -----------------------------------------------------------------
- -----------------------------------------------------------------


- -----------------------------------------------------------------
- -----------------------------------------------------------------
- -----------------------------------------------------------------
- -----------------------------------------------------------------
- -----------------------------------------------------------------
- -------------------------5-5-0-0-3-3-3-3-3-3-0-0-1-1-1-1-1-1-1-1-
PM                         .......................................
- -----------------------------------------------------------------
- -----------------------------------------------------------------
- -----------------------------------------------------------------
- -----------------------------------------------------------------
- -----------------------------------------------------------------
- -----------------------------------------------------------------


- -----------------------------------------------------------------
- -----------------------------------------------------------------
- -----------------------------------------------------------------
- -------6br---------6br---------6-------6br---------6br---------6-
- -----------------------------------------------------------------
- -5-5-5-------5-5-5-------5-5-5---5-5-5-------5-5-5-------5-5-5---
PM .....       .....       .....   .....       .....       .....
- -----------------------------------------------------------------
- -----------------------------------------------------------------
- -----------------------------------------------------------------
- -----------------------------------------------------------------
- -----------------------------------------------------------------
- -----------------------------------------------------------------


- -----------------------------------------------------------------
- -----------------------------------------------------------------
- -----------------------------------------------------------------
- -------6br---------6br-------------------------------------------
- -----------------------------------------------------------------
- -5-5-5-------5-5-5-------5-5-0-0-3-3-3-3-3-3-0-0-1-1-1-1-1-1-1-1-
PM .....       .....       .......................................
- -----------------------------------------------------------------
- -----------------------------------------------------------------
- -----------------------------------------------------------------
- -----------------------------------------------------------------
- -----------------------------------------------------------------
- -----------------------------------------------------------------


- -----------------------------------------------------------------
- -----------------------------------------------------------------
- -----------------------------------------------------------------
- -------6br---------6br---------6-------6br---------6br---------6-
- -----------------------------------------------------------------
- -5-5-5-------5-5-5-------5-5-5---5-5-5-------5-5-5-------5-5-5---
PM .....       .....       .....   .....       .....       .....
- -----------------------------------------------------------------
- -----------------------------------------------------------------
- -----------------------------------------------------------------
- -----------------------------------------------------------------
- -----------------------------------------------------------------
- -----------------------------------------------------------------


- -----------------------------------------------------------------
- -----------------------------------------------------------------
- -----------------------------------------------------------------
- -------6br---------6br-------------------------------------------
- -----------------------------------------------------------------
- -5-5-5-------5-5-5-------5-5-0-0-3-3-3-3-3-3-0-0-1-1-1-1-1-1-1-1-
PM .....       .....       .......................................
- -----------------------------------------------------------------
- -----------------------------------------------------------------
- -----------------------------------------------------------------
- -----------------------------------------------------------------
- -----------------------------------------------------------------
- -------------------------5-5-0-0-3-3-3-3-3-3-0-0-1-1-1-1-1-1-1-1-
PM                         .......................................


- -----------------------------------------------------------------
- -----------------------------------------------------------------
- -----------------------------------------------------------------
- -------6br---------6br---------6-------6br---------6br---------6-
- -----------------------------------------------------------------
- -5-5-5-------5-5-5-------5-5-5---5-5-5-------5-5-5-------5-5-5---
PM .....       .....       .....   .....       .....       .....
- -----------------------------------------------------------------
- -----------------------------------------------------------------
- -------6br---------6br---------6-------6br---------6br---------6-
- -------5br---------5br---------5-------5br---------5br---------5-
- -----------------------------------------------------------------
- -5-5-5-------5-5-5-------5-5-5---5-5-5-------5-5-5-------5-5-5---
PM .....       .....       .....   .....       .....       .....


- -----------------------------------------------------------------
- -----------------------------------------------------------------
- -----------------------------------------------------------------
- -------6br---------6br-----------------------------------[2b]----
- -----------------------------------------------------------------
- -5-5-5-------5-5-5-------5-5-0-0-3-3-3-3-3-3-0-0-1-1-1-1---------
PM .....       .....       ...............................
- -----------------------------------------------------------------
- -----------------------------------------------------------------
- -------6br---------6br-------------------------------------------
- -------5br---------5br-----------------------------------[2b]----
- -----------------------------------------------------------------
- -5-5-5-------5-5-5-------5-5-0-0-3-3-3-3-3-3-0-0-1-1-1-1---------
PM .....       .....       ...............................


- -----------------------------------------------------------------
- -----------------------------------------------------------------
- -----------------------------------------------------------------
- -------6br---------6br---------6-------6br---------6br---------6-
- -----------------------------------------------------------------
- -5-5-5-------5-5-5-------5-5-5---5-5-5-------5-5-5-------5-5-5---
PM .....       .....       .....   .....       .....       .....
- -----------------------------------------------------------------
- -----------------------------------------------------------------
- -------6br---------6br---------6-------6br---------6br---------6-
- -------5br---------5br---------5-------5br---------5br---------5-
- -----------------------------------------------------------------
- -5-5-5-------5-5-5-------5-5-5---5-5-5-------5-5-5-------5-5-5---
PM .....       .....       .....   .....       .....       .....


- -----------------------------------------------------------------
- -----------------------------------------------------------------
- -----------------------------------------------------------------
- -------6br---------6br-------------------------------------------
- -----------------------------------------------------------------
- -5-5-5-------5-5-5-------5-5-0-0-3-3-3-3-3-3-0-0-1-1-1-1-1-1-1-1-
PM .....       .....       .......................................
- -----------------------------------------------------------------
- -----------------------------------------------------------------
- -------6br---------6br-------------------------------------------
- -------5br---------5br-------------------------------------------
- -----------------------------------------------------------------
- -5-5-5-------5-5-5-------5-5-0-0-3-3-3-3-3-3-0-0-1-1-1-1-1-1-1-1-
PM .....       .....       .......................................


[Riff 2a] - [00:43] - [00:56]
- -----------------------------------------------------------------------
- -----------------------------------------------------------------------
- -----------------------------------------------------------------------
- -----------------------------------------------------------------------
- -------10-10-10h12---------5-5-5h8---------1-1-1h4---------4-4-4h7-----
- -10h12-------------0-0-5h8---------0-0-1h4---------0-0-4h7---------0-0-
PM ...........       ...........     ...........     ...........     ...

- -----------------------------------------------------------------------
- -----------------------------------------------------------------------
- -----------------------------------------------------------------------
- -----------------------------------------------------------------------
- -------10-10-10h12---------5-5-5h8---------1-1-1h4---------4-4-4h7-----
- -10h12-------------0-0-5h8---------0-0-1h4---------0-0-4h7---------0-0-
PM ...........       ...........     ...........     ...........     ...

- -----------------------------------------------------------------------
- -----------------------------------------------------------------------
- -----------------------------------------------------------------------
- -----------------------------------------------------------------------
- -------10-10-10h12---------5-5-5h8---------1-1-1h4---------4-4-4h7-----
- -10h12-------------0-0-5h8---------0-0-1h4---------0-0-4h7---------0-0-
PM ...........       ...........     ...........     ...........     ...

- -----------------------------------------------------------------------
- -----------------------------------------------------------------------
- -----------------------------------------------------------------------
- -----------------------------------------------------------------------
- -------10-10-10h12---------5-5-5h8---------1-1-1h4---------------------
- -10h12-------------0-0-5h8---------0-0-1h4---------0-0-8---10---12---0-
PM ...........       ...........     ...........     ...

[Riff 2b] - [00:50] - [00:56]
- -----------------------------------------------------------------
- -----------------------------------------------------------------
- -----------------------------------------------------------------
- -----------------------------------------------------------------
- -----------------------------------------------------------------
- -5-5-5-5-5-5-5-5-----0-0-0-0-0-0-1-1-1-1-1-1-1-1-----4-4-4-4-4-4-
PM ...............................................................

- -----------------------------------------------------------------
- -----------------------------------------------------------------
- -----------------------------------------------------------------
- -----------------------------------------------------------------
- -----------------------------------------------------------------
- -5-5-5-5-5-5-5-5-----0-0-0-0-0-0-1-1-1-1-1-1-1-1-8--10--12--0----
PM ...............................................

[Riff 3] - [00:56] - [01:10]
- -------------------------------------------------------------------------------
- -------------------------------------------------------------------------------
- -------------------------------------------------------------------------------
- -------------------------------------------------------------------------------
- -------------------------------------------------------------------------------
- -1-1-1-1-1-1-1-1-1-1-1-1-1-1-1-1/13-13-13-13-13-13-13\12-12-12-12-12-8-10-12-0-

- -------------------------------------------------------------------------------
- -------------------------------------------------------------------------------
- -------------------------------------------------------------------------------
- -------------------------------------------------------------------------------
- -------------------------------------------------------------------------------
- -1-1-1-1-1-1-1-1-1-1-1-1-1-1-1-1/13-13-13-13-13-13-13\12-12~---------------\---


[Riff 4, Guitar 1 & 2] - [01:10] - [01:23]
- -----------------------------------------------------------------
- -----------------------------------------------------------------
- -------6br---------6br-------------------------------------------
- -------5br---------5br---------6-------6br---------6br---------6-
- -----------------------------------------------------------------
- -5-5-5-------5-5-5-------5-5-5---5-5-5-------5-5-5-------5-5-5---
PM .....       .....       .....   .....       .....       .....
- -----------------------------------------------------------------
- -----------------------------------------------------------------
- -------------------------------6-------6br---------6br---------6-
- -------------------------------5-------5br---------5br---------5-
- -----------------------------------------------------------------
- -------------------------5-5-5---5-5-5-------5-5-5-------5-5-5---
PM                         .....   .....       .....       .....


- -----------------------------------------------------------------
- -----------------------------------------------------------------
- -----------------------------------------------------------------
- -------6br---------6br-----------------------------------[2v]----
- -----------------------------------------------------------------
- -5-5-5-------5-5-5-------5-5-0-0-3-3-3-3-3-3-0-0-1-1-1-1---------
PM .....       .....       ...............................
- -----------------------------------------------------------------
- -----------------------------------------------------------------
- -------6br---------6br-------------------------------------------
- -------5br---------5br-----------------------------------[2v]----
- -----------------------------------------------------------------
- -5-5-5-------5-5-5-------5-5-0-0-3-3-3-3-3-3-0-0-1-1-1-1---------
PM .....       .....       ...............................


- -----------------------------------------------------------------
- -----------------------------------------------------------------
- -----------------------------------------------------------------
- -------6br---------6br---------6-------6br---------6br---------6-
- -----------------------------------------------------------------
- -5-5-5-------5-5-5-------5-5-5---5-5-5-------5-5-5-------5-5-5---
PM .....       .....       .....   .....       .....       .....
- -----------------------------------------------------------------
- -----------------------------------------------------------------
- -------6br---------6br---------6-------6br---------6br---------6-
- -------5br---------5br---------5-------5br---------5br---------5-
- -----------------------------------------------------------------
- -5-5-5-------5-5-5-------5-5-5---5-5-5-------5-5-5-------5-5-5---
PM .....       .....       .....   .....       .....       .....


- -----------------------------------------------------------------
- -----------------------------------------------------------------
- -----------------------------------------------------------------
- -------6br---------6br-------------------------------------------
- -----------------------------------------------------------------
- -5-5-5-------5-5-5-------5-5-0-0-3-3-3-3-3-3-0-0-1-1-1-1-1-1-1-1-
PM .....       .....       .......................................
- -----------------------------------------------------------------
- -----------------------------------------------------------------
- -------6br---------6br-------------------------------------------
- -------5br---------5br-------------------------------------------
- -----------------------------------------------------------------
- -5-5-5-------5-5-5-------5-5-0-0-3-3-3-3-3-3-0-0-1-1-1-1-1-1-1-1-
PM .....       .....       .......................................


[Riff 5a, Guitar 1 & 2] - [01:23] - [01:44]
- -------------------------------------------------------------------------------------------------
- -------------------------------------------------------------------------------------------------
- -------------------------------------------------------------------------------------------------
- -------------------------------------------------------------------------------------------------
- -1-----------------------------------------------1-----------------------------------------------
- -1-----------------------------------------------1-----------------------------------------------
PM ...............................................................................................
- -------------------------------------------------------------------------------------------------
- -------------------------------------------------------------------------------------------------
- -------------------------------------------------------------------------------------------------
- -------------------------------------------------------------------------------------------------
- -1-----------------------------------------------1-----------------------------------------------
- -1-----------------------------------------------1-----------------------------------------------
PM ...............................................................................................


- -------------------------------------------------------------------------------------------------
- -------------------------------------------------------------------------------------------------
- -------------------------------------------------------------------------------------------------
- -------------------------------------------------------------------------------------------------
- -1-----------------------------------------------1-------------------------------1-----1-----1---
- -1-----------------------------------------------1-------------------------------1-----1-----1---
PM ...............................................................................................
- -------------------------------------------------------------------------------------------------
- -------------------------------------------------------------------------------------------------
- -------------------------------------------------------------------------------------------------
- -------------------------------------------------------------------------------------------------
- -1-----------------------------------------------1-----------------------------------------------
- -1-----------------------------------------------1-----------------------------------------------
PM ...............................................................................................


[Riff 5b] - [01:33] - [01:44]
- -------------------------------------------------------------------------------------------------
- -------------------------------------------------------------------------------------------------
- -------------------------------------------------------------------------------------------------
- -------------------------------------------------------------------------------------------------
- -------------------------------------------------------------------------------------------------
- -1/----13\---9----\2-----2b------2-------------0-1/----13\---9----\2-----------------------------

[Riff 6] - [01:44] - [01:45]
- -----------------
- -----------------
- -----------------
- -\\\-------------
- -\\\-------------
- -\\\-------------

[Riff 2a] - [01:45] - [01:59]

[Riff 7] - [01:59] - [02:26] - [x2]
- -------------------------------------------------------------------------------
- -------------------------------------------------------------------------------
- -------------------------------------------------------------------------------
- -------------------------------------------------------------------------------
- -------------------------------------------------------------------------------
- -1-1-1-1-1-1-1-1-1-1-1-1-1-1-1-1/13-13-13-13-13-13-13\12-12-12-12-12-8-10-12-0-

- ------------------------------------------------------
- ------------------------------------------------------
- ------------------------------------------------------
- -5-5-5-5-5-5-5-5-5-5-5-5-5-5-5-5-5-5-5----------------
- -5-5-5-5-5-5-5-5-5-5-5-5-5-5-5-5-5-5-5----------------
- -5-5-5-5-5-5-5-5-5-5-5-5-5-5-5-5-5-5-5/12-12-12-10-10-

[Symbols]

PM... Palm Mute notes with (...) under them
AP... Alternate Pick notes with (...) under them
h     Hammer On
p     Pull Off
[ ]   Harmonic
/     Slide Up
\     Slide Down
x     Dead Note
b     Bend
hb    Hold Bend
pb    Pre-Bend
r     Release Bend
(x )  Play Notes x amount of times
~     Let Ring
\\\   Pick Slide Down
///   Pick Slide Up
/ 3 \ Notes are triplets (3 notes in the space of two)
w\    Whammy Bar Down
w/    Whammy Bar Up
wh    Whammy Bar Hold
T     Right Hand Tap
L     Left Hand Tap

:)

            
            
Suggest correction
Creating personal tab
Creating personal tab
You can edit any tab online and save it as your Personal.

You can edit, replace or remove any tab part or add personal notes – all changes will be seen only by you.

Personal tabs can be accessed anytime from any device, even offline.
Learn more »
Give kudos to tab author, rate the tab!
1 2 3 4 5
comments
print report bad tab
guest
You may want to rate the tab now too:
select rating
Wanna post a correction for this tab? Suggest correction