Oops, an error
Loading. Please wait.

Reptar King Of The Ozone bass

version 1
version 1

Whole song

Interactive

17,120 views 1 this week
no commentswrite comment
1 2 3 4 5
x 4
add to favorites
×
Save as Personal and add changes to this tab that will be seen only by you. Learn more ›
×
You can save this tab as Personal to edit and correct it or add notes. All changes will be seen only by you. Learn more »
launch autoscroll
font size
0
reset
guitar tuner
edit
Autoscroll
slow
fast
+/-
esc
set tempo
stop
Reptar, King of the Ozone                             


                                                           The Devil Wears Prada
Bass



     W                   W                   E  Q    E  E  Q    E   
G||-------------------|-------------------|------------------------|
D||-------------------|-------------------|------------------------|
A||-------------------|-------------------|------------------------|
D||--0----------------|--L----------------|--0-------8--7-------0--|


  E  E  E  E  H           E  S S E  E  E  S S E  S S  
-----------------------|-----------------------------|
-----------------------|-----------------------------|
-----------------------|-----------------------------|
-----0-----0-----------|--0--0-0-0--8--7--0-0-0--0-0-|


  E  E  E  S S E  S S E  E     W                   H        E  E  E  E   
----------------------------|-------------------|-----------------------|
----------------------------|-------------------|-----------------------|
----------------------------|-------------------|-----------------------|
--0-----0--0-0-0--0-0-0--0--|--8----------------|--7--------5--3--2--3--|


  E  S S E  E  E  S S E  S S    E  E  E  S S E  S S E  E     W                 
-----------------------------|----------------------------|-------------------|
-----------------------------|----------------------------|-------------------|
-----------------------------|----------------------------|-------------------|
--0--0-0-0--8--7--0-0-0--0-0-|--0-----0--0-0-0--0-0-0--0--|--8----------------|


  H        E  E  E  E     E  S S E  E  E  S S E   E   
-----------------------|-----------------------------|
-----------------------|-----------------------------|
-----------------------|------------8--7---------10--|
--7--------5--3--2--3--|--0--0-0-0--------0-0-0------|


  E  E  S S E  S S E  Q       E  S S E  E  E  S S E   E   
---------------------------|-----------------------------|
---------------------------|-----------------------------|
-----8---------7-8-7--4----|------------8--7---------10--|
--0-----0-0-0--------------|--0--0-0-0--------0-0-0------|


  E  E  S S E  S S E  Q       E  S S E  E  E  S S E   E   
---------------------------|-----------------------------|
---------------------------|-----------------------------|
-----8---------7-8-7--5----|------------8--7---------10--|
--0-----0-0-0--------------|--0--0-0-0--------0-0-0------|


  E  E  S S E  S S E  Q       E  S S E  E  E  S S E   E   
---------------------------|-----------------------------|
---------------------------|-----------------------------|
-----8---------7-8-7--4----|------------8--7---------10--|
--0-----0-0-0--------------|--0--0-0-0--------0-0-0------|


  E  E  S S E  S S E  Q       W                   W                 
---------------------------|-------------------|-------------------|
---------------------------|-------------------|-------------------|
-----8---------7-8-7--5----|-------------------|-------------------|
--0-----0-0-0--------------|--0----------------|--L----------------|


  W                   S S E  S S E  E  E  Q       S S E  Q    E  E  E  E   
-------------------|---------------------------|--------------------------|
-------------------|---------------------------|--------------------------|
-------------------|---------------------------|--------------------------|
--L----------------|--0-0-0--0-0-0--0----------|--0-0-0--0----0-----0-----|


  S S E  E  E  E  E  E  E     S S E  Q    E  E  E  E   
---------------------------|--------------------------|
---------------------------|--------------------------|
---------------------------|--------------------------|
--0-0-0--0--6--5--3--2--3--|--0-0-0--0----0-----0-----|


  S S E  E  E  E  E  E  E     S S E  Q    E  E  E  E   
---------------------------|--------------------------|
---------------------------|--------------------------|
---------------------------|--------------------------|
--0-0-0--0--6--5--3--2--3--|--0-0-0--0----0-----0-----|


  S S E  E  E  E  E  E  E     S S E  Q    E  E  E  E     W                 
---------------------------|--------------------------|-------------------|
---------------------------|--------------------------|-------------------|
---------------------------|--------------------------|-------------------|
--0-0-0--0--6--5--3--2--3--|--0-0-0--0----0-----0-----|--0----------------|


  Q    E  Q    E  Q       E  E  E  E  E  E  E  E     Q    E  Q    E  Q     
-----------------------|--------------------------|-----------------------|
-----------------------|--5--3--2-----3--2--0-----|-----------------------|
-----------------------|-----------3-----------3--|-----------------------|
--0----0--0----0--0----|--------------------------|--8----8--8----8--8----|


  Q    E  Q    E  Q       Q    E  Q    E  Q       Q    E  Q    E  Q     
-----------------------|-----------------------|-----------------------|
-----------------------|-----------------------|-----------------------|
-----------------------|-----------------------|-----------------------|
--8----8--8----8--8----|--7----7--7----7--7----|--7----7--7----7--7----|


  Q    E  Q    E  Q       Q    E  Q    E  Q       Q    E  Q    E  Q     
-----------------------|-----------------------|-----------------------|
-----------------------|-----------------------|-----------------------|
-----------------------|-----------------------|-----------------------|
--8----8--8----8--8----|--8----8--8----8--8----|--0----0--0----0--0----|


  E  E  E  E  E  E  E  E     Q    E  Q    E  Q       Q    E  Q    E  Q     
--------------------------|-----------------------|-----------------------|
--5--3--2-----3--2--0-----|-----------------------|-----------------------|
-----------3-----------3--|-----------------------|-----------------------|
--------------------------|--8----8--8----8--8----|--8----8--8----8--8----|


  Q    E  Q    E  Q       Q    E  Q    E  Q     
-----------------------|-----------------------|
-----------------------|-----------------------|
-----------------------|-----------------------|
--7----7--7----7--7----|--7----7--7----7--7----|


  PM PM    PM PM    PM PM    PM PM       PM PM    PM PM    PM PM          
  S  S  E  S  S  E  S  S  E  S  S  E     S  S  E  S  S  E  S  S  E  Q     
--------------------------------------|----------------------------------|
--------------------------------------|----------------------------------|
--------------------------------------|----------------------------------|
--0--0-----0--0-----0--0-----0--0-----|--0--0-----0--0-----0--0----------|


  S S E  S S E  E  E  E  E     E  E  S S E  E  E  E  E   
----------------------------|---------------------------|
----------------------------|---------------------------|
----------------------------|---------------------------|
--0-0-0--0-0----0-----0-----|--0-----0-0-0--0-----0-----|


  S S E  S S E  E  E  E  E     H        H           S S E  S S E  E  E  E  E   
----------------------------|--------------------|----------------------------|
----------------------------|--------------------|----------------------------|
----------------------------|-----------8--------|----------------------------|
--0-0-0--0-0----0-----0-----|--8-----------------|--0-0-0--0-0----0-----0-----|


  E  E  S S E  E  E  E  E     S S E  S S E  E  E  E  E     H        H         
---------------------------|----------------------------|--------------------|
---------------------------|----------------------------|--------------------|
---------------------------|----------------------------|-----------8--------|
--0-----0-0-0--0-----0-----|--0-0-0--0-0----0-----0-----|--8-----------------|


  E  S S E  E  E  S S E  E     E  E  E  E  E  E  E  E   
----------------------------|--------------------------|
----------------------------|--------------------------|
----------------------------|--------------------------|
--0--0-0-0--8--7--0-0-0--0--|--0-----0-----0-----0-----|


  E  S S E  E  E  S S E  E     H        H           E  S S E  E  E  S S E  E   
----------------------------|--------------------|----------------------------|
----------------------------|--------------------|----------------------------|
----------------------------|-----------8--------|----------------------------|
--0--0-0-0--8--7--0-0-0--0--|--8-----------------|--0--0-0-0--8--7--0-0-0--0--|


  E  E  E  E  E  E  E  E     E  S S E  E  E  S S E  E     H        H         
--------------------------|----------------------------|--------------------|
--------------------------|----------------------------|--------------------|
--------------------------|----------------------------|-----------8--------|
--0-----0-----0-----0-----|--0--0-0-0--8--7--0-0-0--0--|--8-----------------|


  W                   W                   W                 
-------------------|-------------------|-------------------|
-------------------|-------------------|-------------------|
-------------------|-------------------|-------------------|
--0----------------|--L----------------|--L----------------|


  H        Q    Q       Q    Q.     Q    E     E  E  Q    H         
---------------------|----------------------|----------------------|
---------------------|----------------------|----------------------|
---------------------|----------------------|----------------------|
--L--------0---------|--0----0------0----0--|--L-------------------|


  E  E  Q.      Q    E     Q    Q    E  E  Q       Q    Q.     Q    E   
------------------------|-----------------------|----------------------|
------------------------|-----------------------|----------------------|
------------------------|-----------------------|----------------------|
--8--8--8S------0----0--|--L----0----0--0--0----|--0----0------0----0--|


  E  E  Q    H           E  E  Q.      Q    E     E  E  Q    H         
----------------------|------------------------|----------------------|
----------------------|------------------------|----------------------|
----------------------|------------------------|----------------------|
--L-------------------|--8--8--8S------0----0--|--L-------------------|


  Q    Q.     Q    E     E  E  Q    H           E  E  Q.      Q    E   
----------------------|----------------------|------------------------|
----------------------|----------------------|------------------------|
----------------------|----------------------|------------------------|
--0----0------0----0--|--L-------------------|--8--8--8S------0----0--|


  Q    Q    E  E  Q       Q    Q.     Q    E     E  E  Q    H         
-----------------------|----------------------|----------------------|
-----------------------|----------------------|----------------------|
-----------------------|----------------------|----------------------|
--L----0----0--0--0----|--0----0------0----0--|--L-------------------|


  E  E  Q.      Q    E     E  E  Q    H           Q    E  Q    E  Q     
------------------------|----------------------|-----------------------|
------------------------|----------------------|-----------------------|
------------------------|----------------------|-----------------------|
--8--8--8S------0----0--|--L-------------------|--0----0--0----0--0----|


  E  E  E  E  E  E  E  E     Q    E  Q    E  Q       Q    E  Q    E  Q     
--------------------------|-----------------------|-----------------------|
--5--3--2-----3--2--0-----|-----------------------|-----------------------|
-----------3-----------3--|-----------------------|-----------------------|
--------------------------|--8----8--8----8--8----|--8----8--8----8--8----|


  Q    E  Q    E  Q       Q    E  Q    E  Q       Q    E  Q    E  Q     
-----------------------|-----------------------|-----------------------|
-----------------------|-----------------------|-----------------------|
-----------------------|-----------------------|-----------------------|
--7----7--7----7--7----|--7----7--7----7--7----|--8----8--8----8--8----|


  Q    E  Q    E  Q       Q    E  Q    E  Q       E  E  E  E  E  E  E  E   
-----------------------|-----------------------|--------------------------|
-----------------------|-----------------------|--5--3--2-----3--2--0-----|
-----------------------|-----------------------|-----------3-----------3--|
--8----8--8----8--8----|--0----0--0----0--0----|--------------------------|


  Q    E  Q    E  Q       Q    E  Q    E  Q       Q    E  Q    E  Q     
-----------------------|-----------------------|-----------------------|
-----------------------|-----------------------|-----------------------|
-----------------------|-----------------------|-----------------------|
--8----8--8----8--8----|--8----8--8----8--8----|--7----7--7----7--7----|


  Q    E  Q    E  Q       Q    E  Q    E  Q       Q    E  Q    E  Q     
-----------------------|-----------------------|-----------------------|
-----------------------|-----------------------|-----------------------|
-----------------------|-----------------------|-----------------------|
--7----7--7----7--7----|--8----8--8----8--8----|--8----8--8----8--8----|


  W                   W                   E  Q    S S E  Q    S S  
-------------------|-------------------|--------------------------|
-------------------|-------------------|--------------------------|
-------------------|-------------------|--------------------------|
--0----------------|--L----------------|--0-------0-0-0-------0-0-|


  E  Q    S S S S S S S S S S    Q    Q    H           E  Q    S S E  Q    S S  
------------------------------|---------------------|--------------------------|
------------------------------|---------------------|--------------------------|
------------------------------|---------------------|--------------------------|
--0-------0-0-0-0-0-0-0-0-0-0-|--0------------------|--0-------0-0-0-------0-0-|


  E  Q    S S S S S S S S S S    E  Q    S S E  Q    S S  
------------------------------|--------------------------|
------------------------------|--------------------------|
------------------------------|--------------------------|
--0-------0-0-0-0-0-0-0-0-0-0-|--0-------0-0-0-------0-0-|


  E  Q    S S S S S S S S S S    Q.     S S Q.     S S  
------------------------------|------------------------|
------------------------------|------------------------|
------------------------------|------------------------|
--0-------0-0-0-0-0-0-0-0-0-0-|--0------0-0-0------0-0-|


  Q.     S S S S S S S S S S    Q.     S S Q.     S S  
-----------------------------|------------------------|
-----------------------------|------------------------|
-----------------------------|------------------------|
--0------0-0-0-0-0-0-0-0-0-0-|--0------0-0-0------0-0-|


  Q.     S S S S S S S S S S    E  S S E  E   E  S S E  E    
-----------------------------|------------------------------|
-----------------------------|------------------------------|
-----------------------------|--5---------5h--7---------7h--|
--0------0-0-0-0-0-0-0-0-0-0-|-----0-0-0---------0-0-0------|


  E  S S E  E   E  S S E  E      E  S S E  E   E  S S E  E    
------------------------------|------------------------------|
------------------------------|------------------------------|
--8---------8p--4---------4h--|--5---------5h--7---------7h--|
-----0-0-0---------0-0-0------|-----0-0-0---------0-0-0------|


  E  S S E  E   E  S S E  E     E  Q    S S E  Q    S S  
-----------------------------|--------------------------|
-----------------------------|--------------------------|
--8---------8p--4------------|--------------------------|
-----0-0-0---------0-0-0--0--|--0-------0-0-0-------0-0-|


  E  Q    S S S S S S S S S S    E  Q    S S E  Q    S S  
------------------------------|--------------------------|
------------------------------|--------------------------|
------------------------------|--------------------------|
--0-------0-0-0-0-0-0-0-0-0-0-|--0-------0-0-0-------0-0-|


  E  Q    S S S S S S S S S S    W                   W                 
------------------------------|-------------------|-------------------|
------------------------------|-------------------|-------------------|
------------------------------|-------------------|-------------------|
--0-------0-0-0-0-0-0-0-0-0-0-|--0----------------|--L----------------|


  W                   H        Q    Q      
-------------------|---------------------||
-------------------|---------------------||
-------------------|---------------------||
--L----------------|--L--------0---------||




Duration Legend
---------------
W - whole
H - half
Q - quarter
E - 8th
S - 16th
T - 32nd
X - 64th
. - note dotted
|-n-|  - n-tuplets


Tablature Legend
----------------
L - tied note
x - dead note
g - grace note
(n) - ghost note
> - accentuded note
NH - natural harmonic
AH - artificial harmonic
TH - tapped harmonic
SH - semi harmonic
PH - pitch harmonic
h - hammer on
p - pull off
b - bend
br - bendRelease
pb - preBend
pbr - preBendRelease
brb - bendReleaseBend
\n/ - tremolo bar dip
\n - tremolo bar dive
-/n - tremolo bar Release up
/n\ - tremolo bar inverted dip
/n - tremolo bar return
-\n - tremolo bar Release down
S - shift slide
s - legato slide
/ -  slide into from below or out of upwards
\ -  slide into from above or out of downwards
~ - vibrato
W - wide vibrato
tr - trill
TP - tremolo picking
T - tapping
S - slap
P - pop
< - fade in
^ - brush up
v - brush down

            
            
Suggest correction
Creating personal tab
Creating personal tab
You can edit any tab online and save it as your Personal.

You can edit, replace or remove any tab part or add personal notes – all changes will be seen only by you.

Personal tabs can be accessed anytime from any device, even offline.
Learn more »
comments
print report bad tab
guest
You may want to rate the tab now too:
select rating
Wanna post a correction for this tab? Suggest correction