Oops, an error
Loading. Please wait.

Rosemary Had An Accident tab

version 1
version 1

Whole song

Interactive

5,674 views 1 this week
28 commentsread comments
1 2 3 4 5
x 4
add to favorites
×
Save as Personal and add changes to this tab that will be seen only by you. Learn more ›
×
You can save this tab as Personal to edit and correct it or add notes. All changes will be seen only by you. Learn more »
launch autoscroll
font size
0
reset
how to read this tab
guitar tuner
edit
Autoscroll
slow
fast
+/-
esc
set tempo
stop
----------------------------------------------------------------------------
                ROSEMARY HAD AN ACCIDENT - The Devil Wears Prada
----------------------------------------------------------------------------
Tabbed by:rockstarbowker
Email:
Note:My ear is not perfect I'll admit. I prefer corrections over insults.
Tuning:Drop D

0:00-0:10
e|-------------------------------------------------------------------------|
B|-------------------------------------------------------------------------|
G|-------------------------------------------------------------------------|
D|-8p7-8p7-8p7-8p7-00-8p7-8p7-8p7-8p7-3*--8p7-8p7-8p7-8p7-00-8p7-8p7-0~----|
A|-8p7-8p7-8p7-8p7-00-8p7-8p7-8p7-8p7-----8p7-8p7-8p7-8p7-00-8p7-8p7-0~----|
E|-8p7-8p7-8p7-8p7-00-8p7-8p7-807-8p7-----8p7-8p7-8p7-8p7-00-8p7-8p7-0~----|
                   ..
0:10-0:20
e|--------------------------------------------------------------------|
B|--------------------------------------------------------------------|
G|--------------------------------------------------------------------|
D|------------------15,13,12,----------------15,13,12,----------------|
A|-----13,12,12(x4)-------------13,12,12(x4)--------------------------|
D|--------------------------------------------------------------------|
       .  .  .      .  .  .     .  .  .       .  .  .
e|--------------------------------------------------------------------|
B|--------------------------------------------------------------------|
G|--------------------------------------------------------------------|
D|-----13,12,12(x4)-15,13,12,--13,12,12(x4)--15,13,12,---3*-----------|
A|--------------------------------------------------------------------|
D|--------------------------------------------------------------------|
       .  .  .       .  .  .   .  .  .        .  .  .

0:20-0:30
e|-------------------------------------------------------------------------|
B|-------------------------------------------------------------------------|
G|-------------------------------------------------------------------------|
D|-8p7-8p7-8p7-8p7-00-8p7-8p7-8p7-8p7-3*--8p7-8p7-8p7-8p7-00-8p7-8p7-0~----|
A|-8p7-8p7-8p7-8p7-00-8p7-8p7-8p7-8p7-----8p7-8p7-8p7-8p7-00-8p7-8p7-0~----|
E|-8p7-8p7-8p7-8p7-00-8p7-8p7-807-8p7-----8p7-8p7-8p7-8p7-00-8p7-8p7-0~----|

0:30-0:40
e|-------------------------------------------------------------------------|
B|-------------------------------------------------------------------------|
G|-------------------------------------------------------------------------|
D|-100-1000-000-000------100-1000~-----------------------------------------|
A|-100-1000-000-000-(x3)-100-1000~-----------------------------------------|
E|-100-1000-000-000------100-1000~-----------------------------------------|
   ... .... ... ...      ... ...
0:40-1:07
e|-------------------------------------------------------------------------|
B|-------------------------------------------------------------------------|
G|-------------------------------------------------------------------------|
D|-100-1000-000-000------100-1000------------------(all x2)----------------|
A|-100-1000-000-000-(x3)-100-1000----(x1)----------------------------------|
E|-100-1000-000-000------100-1000-3b---------------------------------------|
   ... .... ... ...      ... ....

1:08-1:13     1:13-1:33
e|-------------------------------------------------------------------------
B|-------------------------------------------------------------------------
G|---5~-7~---999-9999-9999-111111-11111111-11111111-999-9999-9999----------
D|---x~-x~---xxx-xxxx-xxxx-x-x-x--x-x-x-x--x-x-x-x--xxx-xxxx-xxxx----------
A|---3~-5~---777-7777-7777-9-9-9--9-9-9-9--9-9-9-9--777-7777-7777----------
E|-------------------------------------------------------------------------


---------------------------------------------------------------------------|
---------------------------------------------------------------------------|
-11111111/1212121212121212-------------------------------------------------|
-x-x-x-x-/x-x-x-x-x-x-x-x--------------------------------------------------|
-9-9-9-9-/1010101010101010-(all x2)----------------------------------------|
---------------------------------------------------------------------------|

1:33-1:53
e|--------------------------------------------------------------------------
B|--------------------------------------------------------------------------
G|--99999999999--1111111111111111111111-99999999999-------------------------
D|--xxxxxxxxxxx--x-x-x-x-x-x-x-x-x-x-x--xxxxxxxxxxx-------------------------
A|--77777777777--9-9-9-9-9-9-9-9-9-9-9--77777777777-------------------------
E|--------------------------------------------------------------------------

---------------------------------------------------------------------------
---------------------------------------------------------------------------
-10101010-1212121212121212-------------------------------------------------
-x-x-x-x--x-x-x-x-x-x-x-x--------------------------------------------------
-9-9-9-9--1010101010101010-------------------------------------------------
---------------------------------------------------------------------------

-------------------------------------------------------------------------|
-------------------------------------------------------------------------|
--99999999999--1010101010101010101010-99999999999-12~--------------------|
--xxxxxxxxxxx--x-x-x-x-x-x-x-x-x-x-x--xxxxxxxxxxx-x-~--------------------|
--77777777777--9-9-9-9-9-9-9-9-9-9-9--77777777777-10~--------------------|
-------------------------------------------------------------------------|

1:53-1:30
e|-------------------------------------------------------------------------|
B|-------------------------------------------------------------------------|
G|-9~~-5~~-12~~-7~~----99999999-55555555-1212121214141414-77777777-----12~~|
D|-x~~-x~~-x-~~-x~~----xxxxxxxx-xxxxxxxx-x-x-x-x-x-x-x-x--xxxxxxxx-----x-~~|
A|-7~~-3~~-10~~-5~~(x1)77777777-33333333-1010101012121212-55555555-(x2)10~~|
E|-------------------------------------------------------------------------|

1:31-3:09
e|-------------------------------------------------------------------------|
B|-------------------------------------------------------------------------|
G|-------------------------------------------------------------------------|
D|-000000-88888-1010-000000-88888-77------8p0008p0-----0--0--0--0--0---0~--|
A|-000000-88888-1010-000000-88888-77-(x2)-8p0008p0-(x4)0--0--0--0--0---0~--|
E|-000000-88888-1010-000000-88888-77------8p0008p0-----0--0--0--0--0---0~--|
   ......            ......                 ...        .  .  .  . .

3:10-3:22
e|-------------------------------------------------------------------------|
B|-------------------------------------------------------------------------|
G|-------------------------------------------------------------------------|
D|-000-000-3-2-00-00-000-000-3-2-00-0-0------6p5---------------------------|
A|-000-000-5-4-00-00-000-000-5-4-00-0-0-6h7--------------------------------|
E|-000-000-3-2-00-00-000-000-3-2-00-0-0------------------------------------|
   ... ...     .. .. ... ...     .. . .        

e|-------------------------------------------------------------------------|
B|-------------------------------------------------------------------------|
G|-------------------------------------------------------------------------|
D|-000-000-3-2-00-00-000-000-3-2-0-----------------------------------------|
A|-000-000-5-3-00-00-000-000-5-3-0-----------------------------------------|
E|-000-000-3-2-00-00-000-000-3-2-0-----------------------------------------|
   ... ...     .. .. ... ...     .

3:24-3:30
e|-------------------------------------------------------------------------|
B|-------------------------------------------------------------------------|
G|-------------------------------------------------------------------------|
D|-0000-3-2----0~---0000-3-2-00-0-0-----6p5--------------------------------|
A|-0000-5-4----0~---0000-5-4-00-0-0-6h7------------------------------------|
E|-0000-3-2----0~---0000-3-2-00-0-0----------------------------------------|
   ....        .    ....     .. . .

3:31-3:50
e|-------------------------------------------------------------------------|
B|-------------------------------------------------------------------------|
G|-------------------------------------------------------------------------|
D|-0000-3-2---0000-3-2-00-0-----6p5----------------------------------------|
A|-0000-5-4---0000-5-4-00-0-6h7-----(x3)-----------------------------------|
E|-0000-3-2---0000-3-2-00-0------------------------------------------------|
   ....       ....     .. .

3:50-3:57
e|-------------------------------------------------------------------------|
B|-------------------------------------------------------------------------|
G|-------------------------------------------------------------------------|
D|-000-000-00-00-000-000-000-000---000-000-00-00-000-----------------------|
A|-000-000-00-00-000-000-000-000---000-000-00-00-000-----------------------|
E|-000-000-00-00-000-000-000-000---000-000-00-00-000-----------------------|
   ... ... .. .. ... ... ... ...   ... ... .. .. ...

3:57-4:10
e|-------------------------------------------------------------------------|
B|-------------------------------------------------------------------------|
G|-------------------------------------------------------------------------|
D|-0000-0000---0000-0000--------0000-0000---0000-0000----------------------|
A|-0000-0000---0000-0000--------0000-0000---0000-0000----------------------|
E|-0000-0000---0000-0000---3b---0000-0000---0000-0000----------------------|
   .... ....   .... ....        .... ....   .... ....

4:12-4:27
e|-------------------------------------------------------------------------|
B|-------------------------------------------------------------------------|
G|-------------------------------------------------------------------------|
D|-0000-3-2~~~-0000-3-2~~~-0000-3-2~~~-0~-0000-3-2~~~----------------------|
A|-0000-5-4~~~-0000-5-4~~~-0000-5-4~~~-0~-0000-5-4~~~----------------------|
E|-0000-3-2~~~-0000-3-2~~~-0000-3-2~~~-0~-0000-3-2~~~----------------------|
   ....        ....        ....        .  ....

4:27-4:55
e|----------00000----------------------------------------------------------|
B|----------00000----------------------------------------------------------|
G|----------00000----------------------------------------------------------|
D|-0~-0~-0~-00000---------0~-----------------------------------------------|
A|-0~-0~-0~---------(5x)--0~-----------------------------------------------|
E|-0~-0~-0~---------------0~-----------------------------------------------|
   .  .  .                .

This took me 3 hours to type out so Like it, Love it, Live it, Send it to your mother :)

            
            
Suggest correction
Creating personal tab
Creating personal tab
You can edit any tab online and save it as your Personal.

You can edit, replace or remove any tab part or add personal notes – all changes will be seen only by you.

Personal tabs can be accessed anytime from any device, even offline.
Learn more »
comments
print report bad tab
28 comments total. Showing first comments.
0 reply
rockstarbowker 283 Mar 10, 2007 12:33 PM

Wow.
Sorry about the typoes at the end!
I was really tired.

0 reply
eflex21 30 Mar 13, 2007 01:53 PM

hey dude this is a different song, you tabbed out "and the sentence trails off" not rosemary had an accident

0 reply
rockstarbowker 283 Mar 13, 2007 04:53 PM

No actually I didnt. I can garentee that.

guest
You may want to rate the tab now too:
select rating
Wanna post a correction for this tab? Suggest correction