Oops, an error
Loading. Please wait.

Swords Dragons And Diet Coke Tab

version 1
version 1

Whole song

Interactive

12,196 views 1 this week
11 commentsread comments
1 2 3 4 5
excellent!
x 6
add to favorites
launch autoscroll
font size
0
reset
how to read this tab
guitar tuner
Tab Pro tools
  • play this tab
  • loop segment
  • change instrument
  • show fretboard
  • metronome
×
Best way to learn
"Swords Dragons And Diet Coke"
Autoscroll
slow
fast
+/-
esc
set tempo
stop
Contributor
Tabbed By: Wes Sanford

.  - palm mute           /  - slide up to
\  - slide down to       ~  - let ring
h/p- hammer on/pull off  *  - pinch harmonic

Tuning= Drop D         _Swords Dragons & Diet Coke_


E-------------------------------------------------------
B-------------------------------------------------------
G-----10-10p9-----2-2h3-----10-10p9-----2-2h3-3---------
D-----10-10p9-----2-2h3-----10-10p9-----2-2h3-3---------
A--0-----------0---------0-----------0------------------
D--0-----------0---------0-----------0------------------


E-------------------------------------------------------
B-------------------------------------------------------
G-----10-10p9-----2-2h3-----10-10p9---------------------
D-----10-10p9-----2-2h3-----10-10p9----8-7-5-3----------
A--7-----------7---------7------------------------------
D--7-----------7---------7------------------------------


E-------------------------------------------------------
B-------------------------------------------------------
G-----10-10p9-----2-2h3-----10-10p9-----2-2h3-3---------
D-----10-10p9-----2-2h3-----10-10p9-----2-2h3-3---------
A--8-----------8---------8-----------8------------------
D--8-----------8---------8-----------8------------------


E-------------------------------------------------------
B-------------------------------------------------------
G-----10-10p9-----2-2h3-----10-10p9---------------------
D-----10-10p9-----2-2h3-----10-10p9------8-7-5-3--------
A--10----------10--------10-----------------------------
D--10----------10--------10-----------------------------


  Guitar 1
E----------------------------------------------
B----------------------------------------------  
G----------------------------------------------  pick fast and
D--8-7-3-5-3-2-3-2-----8-7-8-10-8-7-8-7--------  play 3 times
A----------------------------------------------
D----------------------------------------------


Guitar 2
E----------------------------------------------  pick fast and
B----------------------------------------------  play for the last
G--8-7-3-5-3-2-3-2-----8-7-8-10-8-7-8-7--------  2 times that
D----------------------------------------------  guitar 1 plays
A----------------------------------------------
D----------------------------------------------


Guitar 1             Guitar 2
E---------          E----------
B---------          B----------
G---7~----          G----------
D---------          D----7~----
A---------          A----------
D---------          D----------


E-------------------------------------------------------------
B-------------------------------------------------------------
G-------------------------------------------------------------             
D---3-0-3-0--00000-00000-00000-00000-00000-00000-00000-00000--
A---3-0-3-0--00000-00000-00000-00000-00000-00000-00000-00000--
D---3-0-3-0--00000-00000-00000-00000-00000-00000-00000-00000--


E-------------------------------------------------------------
B--------11-------------15-----------16----16----16----16-----
G--------14-------------18--------19----19----19----19--------
D---0000-----(4x)--0000-----(2x)------------------------------
A---0000-----------0000---------------------------------------
D---0000-----------0000---------------------------------------


E----------------------------------------------
B----------------------------------------------
G----------------------------------------------  play this 2x
D--0-0-0~----0000000--0-0----------0000--------
A--0-0-0~----0000000--0-0---(4x)---0000---3*b--
D--0-0-0~----0000000--0-0----------0000--------


E--------------------------------------------------------
B--------------------------------------------------------
G--------------------------------------------------------  play 4x
D-----------------------3p2-----------------2p0-3p0-2p0--
A------5--3--2----3p2-----------5--3--2--3---------------
D--0-0--0--0--000-----0-----0-0--0--0--0--0--------------


 "And i will never be forgotten"
E-----------------------------
B-----------------------------
G--------7---5----3--2--------
D--0-0---7---5----3--2--------
A--0-0---5---3----1--0--------
D--0-0------------------------


E----------------------------------------------------
B----------------------------------------------------
G-------------------------14-----------------15------
D--0--0000-0000-0000-000------0000-0000-000----------
A--0--0000-0000-0000-000--12--0000-0000-000--13------
D--0--0000-0000-0000-000------0000-0000-000-----0----


E-----------------------------
B-----------------------------
G--------7---5----3--2--------
D--0-0---7---5----3--2--------
A--0-0---5---3----1--0--------
D--0-0------------------------


E----------------------------------------------------
B----------------------------------------------------
G-------------------------14-------------------------
D--0--0000-0000-0000-000------0000-0000-000----------
A--0--0000-0000-0000-000--12--0000-0000-000----------
D--0--0000-0000-0000-000------0000-0000-000----------


E----------------------------------------------------
B----------------------------------------------------
G-------------------------14-------------------------
D--0--0000-0000-0000-000------0000-0000-000----------
A--0--0000-0000-0000-000--12--0000-0000-000----------
D--0--0000-0000-0000-000------0000-0000-000----------



E---------------------------------------
B---------------------------------------
G---------------------------------------  play 1x
D---7~-----10~------3~------5~----------  
A---7~-----10~------3~------5~----------
D---7~-----10~------3~------5~----------



Guitar 1                                   Guitar 2
E-----------------------------           E------------------
B-----------------------------           B------------------
G---10--9--14-----10--9--5---- play 1x   G----5------7------  play 2x
D-----------------------------           D----5------7------
A---8---7--12-----8---7--3----           A----3------5------
D-----------------------------           D------------------

  !.PLay the 2 below lines twice.!
E--------------------------------------------------------------------------
B--------------------------------------------------------------------------
G------9--9------9--9--9--9--9---------9--9-------------9--9--9--9--9------
D--77--10-10--7--10-10-10-10-10--10-10-10-10--10-10-10--10-10-10-10-10-----
A--77---------7------------------10-10--------10-10-10---------------------
D--77---------7------------------10-10--------10-10-10---------------------


E------------------------------------------------
B-----3-3---3-3-3-3-3-----3-3----3-3-3-3-3-------
G-----3-3---3-3-3-3-3-----3-3----3-3-3-3-3-------  
D--33-3-3-3-3-3-3-3-3--55-3-3--5-3-3-3-3-3-------
A--33-----3------------55------5-----------------
D--33-----3------------55------5-----------------

 "With dead tongues....."
E---------------------------------------
B---------------------------------------
G---------------------------------------
D---7~-----10~------3~------5~----------  
A---7~-----10~------3~------5~----------
D---7~-----10~------3~------5~----------


Guitar 1                                   Guitar 2
E-----------------------------           E------------------
B-----------------------------           B------------------
G---10--9--14-----10--9--5---- play 1x   G----5------7------  play 2x
D-----------------------------           D----5------7------
A---8---7--12-----8---7--3----           A----3------5------
D-----------------------------           D------------------


E---------------------------------------------------------------------
B---------------------------------------------------------------------
G---------------------------------------------------------------------
D------------------------------------------------------------------0--
A---------------------------------------------------------------5--0--
D--0-000-000-000-000-000-000-000-00-5p3p0-5p3p0-5p3p0-5p3p0-5p3----0--


"Your final days Approach" (3:12)


E----------------------         E----------------------
B----------------------         B----------------------
G---------------------- (3x)    G----------------------
D--0--000-0--000-0-0---   then  D--0--000-0--000-------
A--0--000-0--000-0-0---         A--0--000-0--000--3*b--
D--0--000-0--000-0-0---         D--0--000-0--000-------


E-----------------------
B-----------------------
G----------------------- play 3x
D--0--222-3--222-2-2----   
A--0--222-3--222-2-2----   then
D--0--222-3--222-2-2----


E----------------------
B----------------------
G----------------------
D--0--000-0--000-0-0---
A--0--000-0--000-0-0---
D--0--000-0--000-0-0---


  Das ist alles. Danke
comments
print report bad tab
11 comments total. Showing first comments.
-1 reply
Naruto_x wrote on March 22 2007, 02:53 pm

OMFG! Thank you for tabbing this! I've waited so ****ing long for this song!!

+1 reply
RiouX wrote on April 28 2007, 03:38 pm

dude at the 5 riff(pick this fast) its tremolo picking

0 reply
RiouX wrote on April 28 2007, 04:02 pm

riff number 5 *

I want to post or [tab]
guest
You may want to rate the tab now too:
select rating
Please do not post tabs as comments. Select "correction" instead!