Oops, an error
Loading. Please wait.

Texas Is South bass

version 1
version 1

Whole song

Interactive

4,277 views 6 this week
3 commentsread comments
1 2 3 4 5
x 3
add to favorites
×
Save as Personal and add changes to this tab that will be seen only by you. Learn more ›
×
You can save this tab as Personal to edit and correct it or add notes. All changes will be seen only by you. Learn more »
launch autoscroll
font size
0
reset
guitar tuner
edit
Autoscroll
slow
fast
+/-
esc
set tempo
stop
I made acouple of mistakes on my last edition of this tab
i worked out the kinks to what i think are correct ..if not oh well.


Beginning (0:00-0:22)
G|-----------------------------------------------------|
D|-----------------------------------------------------|x4
A|-----------------------101010101010------------------|
D|--0-0-0--0-0-0--0-0-0--------------------------------|
    . . .  . . .  . . .

Little Thing Right Before The Singing
G|------------------|
D|------------------|
A|------------------|
D|--0-0-0-0-0-0-0---|
    . . . . . . .

Chorus Thing (0:23-0:41)
G|------------------------------|
D|------------------------------|
A|---8~-7~-3~-8~-12~-8~-7~~-----|
D|------------------------------|

(0:42-0:52)
G|--------------------------|
D|--------------------------|
A|---8~-7~-3~-8~------------|
D|--------------------------|

Then (0:53-1:00)
G|---------------------------------------------------|
D|---------------------------------------------------|
A|---------------------------------------------------|
D|--0000000-2222222-333333333333---------------------|

(1:01-1:09)
G|-----------------------------------------------|
D|-----------------------------------------------|x2
A|-----------------------------------------------|
D|--0--0-0-0-0-0-0-000--0--0-0-0-----------------|
       . . . . . . ...     . . .

(1:10-1:19)
G|-----------------------------------------------|
D|-----------------------------------------------|x2
A|-----------------------------------------------|
D|--0--0-0-0-0-0-0-000--0--0-0-0-----------------|
       . . . . . . ...     . .

(1:20-1:34)
G|-------------------------------------------------|
D|-------------------------------------------------|
A|-------------------------------------------------|
D|--0-0-0-0-0----0-0-0-----0-0-0-0-0----0-0-0------|
    . . . . .    . . .     . . . . .    . . .

G|-------------------------------------------------|
D|-------------------------------------------------|
A|-------------------------------------------------|
D|--0-0-0-0-0~---0-0-0~----0-0-0-0-0~---0-0-0~-----|
    . . . . .    . . .     . . . . .    . . . 

(1:35-1:56)
G|-------------------------------------------------------|
D|-------------------------------------------------------|x2
A|-------------------------------------------------------|
D|---8888888-7777777--00000-222222-3333333-2222222-------|

On The 3rd One Do This
G|--------------|
D|--------------|
A|--------------|
D|---8~---10~---|

(1:57-2:05)
G|----------------------------------------------------|
D|----------------------------------------------------|x2
A|----------------------------------------------------|
D|--0-0--0--00-0-0-0-0-0-00-0-0--8~--7~---------------|
      .  .  .. . . . . . .. . .

(2:06-2:22)
G|----------------------------------------|
D|----------------------------------------|x8
A|----------------------------------------|
D|--0-0--0--00-0-0------------------------|
      .  .  .. . .

(2:23-2:39)
G|------------|
D|------------|x1
A|------------|
D|----0~------|


(2:40-2:55)
G|------------------------------|
D|------------------------------|x1
A|------------------------------|
D|--0~----0~----0~----0~--------|
    .     .     .     .

Breakdown. (2:56-3:24)
G|----------------------------------------------------------|
D|-------8----------8-------------8----------8--------------|
A|--------78~--------781087--------78~--------781087--------|
D|--000--------000-----------000--------000-----------------|
    ...        ...           ...        ...

Continued
G|--------------------------------------------------------------|
D|-------8----------8----------------8--------------108787------|x2
A|--------78~--------781087-----------78~-----------------8-----|
D|--888--------888-----------101010--------101010---------------|
    ...        ...            . . .         . . .

(3:26-3:53)
G|----------------------------------------------------------------|
D|----------------------------------------------------------------|x2
A|----------------------------------------------------------------|
D|---0000000000--88888888888--101010101010101010--88888888888888--|

(3:54-4:21) 
G|----------|
D|----------|
A|----------|
D|----------|

(4:22-4:47)
G|------------------------------------------------------------------------|
D|------------------------------------------------------------------------|x2
A|------------------------------------------------------------------------|
D|---0000000000--88888888888--1010-1010-1010-1010-101010--88888888888888--|


(4:48-5:29)
G|----------|
D|----------|
A|----------|
D|----------|

(5:30-5:43)
G|------------------------------------|
D|------------------------------------|x2
A|------------------------------------|
D|--0-0-0--0-0-0--0-0-0--0~-----------|
    . . .  . . .  . . .  .

(5:44-5:54)
G|--------------------------------------|----------------------|
D|--------------------------------------|----------------------|
A|---------0/10-------0/10-------0/10-x3|101010101010-777777---|
D|--0-0-0------0-0-0------0-0-0---------|----------------------|
    . . .      . . .      . . .

(5:55-6:08) End
G|--------------------------------------------|
D|--------------------------------------------|x2
A|---2-3-4-5-6----------10\0------------------|
D|--------------------------------------------|

            
            
Suggest correction
Creating personal tab
Creating personal tab
You can edit any tab online and save it as your Personal.

You can edit, replace or remove any tab part or add personal notes – all changes will be seen only by you.

Personal tabs can be accessed anytime from any device, even offline.
Learn more »
Give kudos to tab author, rate the tab!
1 2 3 4 5
comments
print report bad tab
3 comments total.
0 reply
convictionless 76 Oct 27, 2007 07:39 PM

phail

0 reply
JonnyH92 72 Oct 31, 2007 12:56 PM

phail? wtf? its not right, but whats the point in just saying "phail"? thats so gay.

0 reply
Ravishing Gary 72 Feb 12, 2008 12:53 PM

ok umm he doesnt play the

G|-----
D|--8--
A|---78
D|-----

during the breakdown but he does play

G|------ G|---------
D|------ && D|--108787-
A|--1087 A|--------8
D|------ D|---------

other than that, seems fine to me

byt he does play

guest
You may want to rate the tab now too:
select rating
Wanna post a correction for this tab? Suggest correction