Oops, an error
Loading. Please wait.

This Song Is Called bass

version 1
version 1

Whole song

Interactive

4,970 views 1 this week
2 commentsread comments
1 2 3 4 5
2 more votes to show rating
add to favorites
×
Save as Personal and add changes to this tab that will be seen only by you. Learn more ›
×
You can save this tab as Personal to edit and correct it or add notes. All changes will be seen only by you. Learn more »
launch autoscroll
font size
0
reset
guitar tuner
edit
Autoscroll
slow
fast
+/-
esc
set tempo
stop
                              This Song Is Called                               


                                                           The Devil Wears Prada
Bass



                                     W                   W                 
G||-------|-------|-------|-------|-------------------|-------------------|
D||-------|-------|-------|-------|-------------------|-------------------|
A||-------|-------|-------|-------|-------------------|-------------------|
D||-------|-------|-------|-------|--8----------------|--L----------------|


  E  E  Q    H           W                   W                 
----------------------|-------------------|-------------------|
----------------------|-------------------|-------------------|
----------------------|-------------------|-------------------|
--5--5-------5--------|--7----------------|--0----------------|


  W                   W                   W                 
-------------------|-------------------|-------------------|
-------------------|-------------------|-------------------|
-------------------|-------------------|-------------------|
--L----------------|--L----------------|--L----------------|


  E  E  E  E  E  E  E  E     E  E  E  E  E  E  E  E   
--------------------------|--------------------------|
--------------------------|--------------------------|
--------------------------|--------------------------|
--8--8--8--8--8--8--8--8--|--8--8--8--8--8--8--8--8--|


  E  E  E  E  E  E  E  E     E  E  E  E  E  E  E  E   
--------------------------|--------------------------|
--------------------------|--------------------------|
--------------------------|--------------------------|
--5--5--5--5--5--5--5--5--|--5--5--5--5--5--5--5--5--|


  E  E  E  E  E  E  E  E     E  E  E  E  E  E  E  E   
--------------------------|--------------------------|
--------------------------|--------------------------|
--------------------------|--------------------------|
--0--0--0--0--0--0--0--0--|--0--0--0--0--0--0--0--0--|


  E  E  E  E  E  E  E  E     E  E  E  E  E  E  E  E   
--------------------------|--------------------------|
--------------------------|--------------------------|
--------------------------|--------------------------|
--0--0--0--0--0--0--0--0--|--0--0--0--0--0--0--0--0--|


  E  E  E  E  E  E  E  E     E  E  E  E  E  E  E  E   
--------------------------|--------------------------|
--------------------------|--------------------------|
--------------------------|--------------------------|
--8--8--8--8--8--8--8--8--|--8--8--8--8--8--8--8--8--|


  E  E  E  E  E  E  E  E     E  E  E  E  E  E  E  E   
--------------------------|--------------------------|
--------------------------|--------------------------|
--------------------------|--------------------------|
--5--5--5--5--5--5--5--5--|--5--5--5--5--5--5--5--5--|


  E  E  E  E  E  E  E  E     E  E  E  E  E  E  E  E   
--------------------------|--------------------------|
--------------------------|--------------------------|
--------------------------|--------------------------|
--0--0--0--0--0--0--0--0--|--0--0--0--0--0--0--0--0--|


  E  E  E  E  E  E  E  E     E  E  E  E  E  E  E  E   
--------------------------|--------------------------|
--------------------------|--------------------------|
--------------------------|--------------------------|
--0--0--0--0--0--0--0--0--|--0--0--0--0--0--0--0--0--|


  E  E  E  E  E  E  E  E     E  E  E  E  E  E  E  E   
--------------------------|--------------------------|
--------------------------|--------------------------|
--------------------------|--------------------------|
--8--8--8--8--8--8--8--8--|--8--8--8--8--8--8--8--8--|


  E  E  E  E  E  E  E  E     E  E  E  E  E  E  E  E     W                 
--------------------------|--------------------------|-------------------|
--------------------------|--------------------------|-------------------|
--------------------------|--------------------------|-------------------|
--5--5--5--5--5--5--5--5--|--5--5--5--5--5--5--5--5--|--0----------------|


  W                   E  E  E  E  E  E  E  E     E  E  Q    H         
-------------------|--------------------------|----------------------|
-------------------|--------------------------|----------------------|
-------------------|--------------------------|----------------------|
--L----------------|--0-----0-----0-----0-----|--0-------------------|


  Q    E  E  E  E  E  E     E  E  E  E  E  E  E  E     Q    E  E  E  E  E  E   
-------------------------|--------------------------|-------------------------|
-------------------------|--------------------------|-------------------------|
-------0--1--------------|--------------------------|-------0--1--------------|
--0-------------3-----3--|-----3-----3--3--5--5--5--|--0-------------3-----3--|


  E  E  E  E  E  E  E  E     Q    E  E  E  E  E  E     E  E  E  E  E  E  E  E   
--------------------------|-------------------------|--------------------------|
--------------------------|-------------------------|--------------------------|
--------------------------|-------0--1--------------|--------------------------|
-----3--3--3--3--3--3--3--|--0-------------3-----3--|-----3-----3--3--5--5--5--|


  Q    E  E  E  E  E  E     E  E  E  E  E  E  Q       Q    E  E  E  E  E  E   
-------------------------|-------------------------|-------------------------|
-------------------------|-------------------------|-------------------------|
-------0--1--------------|-------------------------|-------0--1--------------|
--0-------------3-----3--|-----3--3--3--3--3--3----|--0-------------3-----3--|


  E  E  E  E  E  E  E  E     Q    E  E  E  E  E  E     E  E  E  E  E  E  E  E   
--------------------------|-------------------------|--------------------------|
--------------------------|-------------------------|--------------------------|
--------------------------|-------0--1--------------|--------------------------|
-----3-----3--3--5--5--5--|--0-------------3-----3--|-----3--3--3--3--3--3--3--|


  Q    E  E  E  E  E  E     E  E  E  E  E  E  E  E     E  E  E  E  E  E  E  E   
-------------------------|--------------------------|--------------------------|
-------------------------|--------------------------|--------------------------|
-------0--1--------------|--------------------------|--------------------------|
--0-------------3-----3--|-----3-----3--3--5--5--5--|--8--8--8--8--8--8--8--8--|


   E   E   E   E   E   E   E   E     E  E  E  E  H           W                 
----------------------------------|-----------------------|-------------------|
----------------------------------|-----------------------|-------------------|
----------------------------------|-----------------------|-------------------|
--10--10--10--10--10--10--10--10--|--0--0--0--0-----------|-------------------|


  E  E  E  E  H           W                   E  E  E  E  H         
-----------------------|-------------------|-----------------------|
-----------------------|-------------------|-----------------------|
--------------8--------|--L----------------|--------------7--------|
--0--0--0--0-----------|-------------------|--0--0--0--0-----------|


  W                   W                   H        Q.     E   
-------------------|-------------------|---------------------|
-------------------|-------------------|---------------------|
--L----------------|-------------------|---------------------|
-------------------|--0----------------|--L--------L------0--|


  W                   H        Q.     E     W                 
-------------------|---------------------|-------------------|
-------------------|---------------------|-------------------|
-------------------|---------------------|-------------------|
--0----------------|--L--------L------0--|--0----------------|


  H        Q.     E     W                   H        Q.     E   
---------------------|-------------------|---------------------|
---------------------|-------------------|---------------------|
---------------------|-------------------|---------------------|
--L--------L------0--|--0----------------|--L--------L------0--|


  W                   H        Q.     E     W                 
-------------------|---------------------|-------------------|
-------------------|---------------------|-------------------|
-------------------|---------------------|-------------------|
--0----------------|--L--------L------0--|--0----------------|


  W                   W                   H        Q.     E   
-------------------|-------------------|---------------------|
-------------------|-------------------|---------------------|
-------------------|-------------------|---------------------|
--L----------------|--0----------------|--L--------L------0--|


  W                   W                   W                 
-------------------|-------------------|-------------------|
-------------------|-------------------|-------------------|
-------------------|-------------------|-------------------|
--0----------------|--L----------------|--0----------------|


  H        Q.     E     W                   H        Q.     E   
---------------------|-------------------|---------------------|
---------------------|-------------------|---------------------|
---------------------|-------------------|---------------------|
--L--------L------0--|--0----------------|--L--------L------0--|


  W                   H        Q.     E     Q    E  E  E  E  E  E   
-------------------|---------------------|-------------------------|
-------------------|---------------------|-------------------------|
-------------------|---------------------|-------------------------|
--0----------------|--L--------L------0--|--0----0--0--0--0--0--0--|


  E.  S E  E  E.  S E  E     E  E  E  E  E  E  E  E   
--------------------------|--------------------------|
--------------------------|--------------------------|
--------------------------|--------------------------|
--0---0-0--0--0---0-0--0--|--0--0--0--0--0--0--0--0--|


  E  E  E  E  E  E  E  E     E  E  E  E  E  E  E  E   
--------------------------|--------------------------|
--------------------------|--------------------------|
--------------------------|--------------------------|
--0--0--0--0--0--0--0--0--|--0--0--0--0--0--0--0--0--|


  E  E  E  E  E  E  E  E     E  E  E  E  E  E  E  E   
--------------------------|--------------------------|
--------------------------|--------------------------|
--------------------------|--------------------------|
--0--0--0--0--0--0--0--0--|--0--0--0--0--0--0--0--0--|


  E  E  E  E  E  E  E  E     E  E  E  E  E  E  E  E   
--------------------------|--------------------------|
--------------------------|--------------------------|
--------------------------|--------------------------|
--0--0--0--0--0--0--0--0--|--0--0--0--0--0--0--0--0--|


  E  E  E  E  E  E  E  E     E  E  E  Q    E  E  E     E  S S E  E  E  E  Q     
--------------------------|-------------------------|--------------------------|
--------------------------|-------------------------|--------------------------|
--------------------------|-------------------------|--------------------------|
--0--0--0--0--0--0--0--0--|--0--0--0--0----0--0--0--|--L--0-0-0--0--0--0--0----|


  E  E  E  Q    E  E  E     E  S S E  E  E  E  Q       E  E  E  Q    E  E  E   
-------------------------|--------------------------|-------------------------|
-------------------------|--------------------------|-------------------------|
-------------------------|--------------------------|-------------------------|
--0--0--0--0----0--0--0--|--L--0-0-0--0--0--0--0----|--0--0--0--0----0--0--0--|


  E  S S E  E  E  E  Q       E  E  E  Q    E  E  E     E  S S E  E  E  E  Q     
--------------------------|-------------------------|--------------------------|
--------------------------|-------------------------|--------------------------|
--------------------------|-------------------------|--------------------------|
--L--0-0-0--0--0--0--0----|--0--0--0--0----0--0--0--|--L--0-0-0--0--0--0--0----|


  Q    E  Q    E  Q       E  Q    E  Q      Q        Q    E  Q    E  Q     
-----------------------|--------------------------|-----------------------|
-----------------------|--------------------------|-----------------------|
-----------------------|--------------------------|-----------------------|
--0-------0-------0----|-----0-------0s----12S----|--0-------0-------0----|


  E  Q    E  Q      Q        Q    E  Q    E  Q       E  Q    E  Q      Q      
--------------------------|-----------------------|--------------------------|
--------------------------|-----------------------|--------------------------|
--------------------------|-----------------------|--------------------------|
-----0-------0s----12S----|--0-------0-------0----|-----0-------0s----12S----|


  Q    E  Q    E  Q       E  Q    E  Q      Q        Q    Q    S S S S S S S S  
-----------------------|--------------------------|----------------------------|
-----------------------|--------------------------|----------------------------|
-----------------------|--------------------------|----------------------------|
--0-------0-------0----|-----0-------0s----12S----|--0----0----0-0-0-0-0-0-0-0-|


  W                   Q    Q    S S S S S S S S    W                 
-------------------|----------------------------|-------------------|
-------------------|----------------------------|-------------------|
-------------------|----------------------------|-------------------|
-------------------|--0----0----0-0-0-0-0-0-0-0-|-------------------|


  Q    Q    S S S S S S S S    W                   Q    Q    S S S S S S S S  
----------------------------|-------------------|----------------------------|
----------------------------|-------------------|----------------------------|
----------------------------|-------------------|----------------------------|
--0----0----0-0-0-0-0-0-0-0-|-------------------|--0----0----0-0-0-0-0-0-0-0-|


  W                   E  E  Q    S S S S S S S S    E  E  Q    H         
-------------------|-----------------------------|----------------------|
-------------------|-----------------------------|----------------------|
-------------------|-----------------------------|----------------------|
-------------------|--0----------0-0-0-0-0-0-0-0-|--0-------------------|


  E  E  Q    S S S S S S S S    Q    Q    Q    Q     
-----------------------------|----------------------|
-----------------------------|----------------------|
-----------------------------|----------------------|
--0----------0-0-0-0-0-0-0-0-|--8----7----5----3----|


  E  E  Q    S S S S S S S S    E  E  Q    H         
-----------------------------|----------------------|
-----------------------------|----------------------|
-----------------------------|----------------------|
--0----------0-0-0-0-0-0-0-0-|--0-------------------|


  E  E  Q    S S S S S S S S    Q    Q    Q    Q     
-----------------------------|----------------------|
-----------------------------|----------------------|
-----------------------------|----------------------|
--0----------0-0-0-0-0-0-0-0-|--8----7----5----3----|


  Q    Q    S S S S S S S S    W                   Q    Q    S S S S S S S S  
----------------------------|-------------------|----------------------------|
----------------------------|-------------------|----------------------------|
----------------------------|-------------------|----------------------------|
--0----0----0-0-0-0-0-0-0-0-|--L----------------|--0----0----0-0-0-0-0-0-0-0-|


  Q    Q    Q    Q       E  E  Q    S S S S S S S S    W                 
----------------------|-----------------------------|-------------------|
----------------------|-----------------------------|-------------------|
----------------------|-----------------------------|-------------------|
--8----7----5----3----|--0----------0-0-0-0-0-0-0-0-|--0----------------|


  Q    Q    S S S S S S S S    E.  E.  E  E.  E.  E     E  E  Q    H         
----------------------------|------------------------|----------------------|
----------------------------|------------------------|----------------------|
----------------------------|------------------------|----------------------|
--0----0----0-0-0-0-0-0-0-0-|--0-------0--0-------0--|--0-------------------|


  E  S E.  E  E  S S S S S S    E.  E.  E  E.  E.  E   
-----------------------------|------------------------|
-----------------------------|------------------------|
-----------------------------|------------------------|
--0--------------0-0-0-0-0-0-|--0-------0--0-------0--|


  E  S E.  E  E  S S S S S S    E.  E.  E  E.  E.  E   
-----------------------------|------------------------|
-----------------------------|------------------------|
-----------------------------|------------------------|
--0--------------0-0-0-0-0-0-|--0-------0--0-------0--|


  E  S E.  E  E  S S S S S S    E.  E.  E  E.  E.  E   
-----------------------------|------------------------|
-----------------------------|------------------------|
-----------------------------|------------------------|
--0--------------0-0-0-0-0-0-|--0-------0--0-------0--|


  E  S E.  E  E  S S S S S S    W                   W                 
-----------------------------|-------------------|-------------------|
-----------------------------|-------------------|-------------------|
-----------------------------|-------------------|-------------------|
--0--------------0-0-0-0-0-0-|--4----------------|--3----------------|


  W                   E  S E.  E  E  S S S S S S    E.  E.  E  E.  E.  E   
-------------------|-----------------------------|------------------------|
-------------------|-----------------------------|------------------------|
-------------------|-----------------------------|------------------------|
--2----------------|--0--------------0-0-0-0-0-0-|--0-------0--0-------0--|


  E  S E.  E  E  S S S S S S    E.  E.  E  E.  E.  E   
-----------------------------|------------------------|
-----------------------------|------------------------|
-----------------------------|------------------------|
--0--------------0-0-0-0-0-0-|--0-------0--0-------0--|


  E  S E.  E  E  S S S S S S    E.  E.  E  E.  E.  E   
-----------------------------|------------------------|
-----------------------------|------------------------|
-----------------------------|------------------------|
--0--------------0-0-0-0-0-0-|--0-------0--0-------0--|


  E  S E.  E  E  S S S S S S    W                   W                 
-----------------------------|-------------------|-------------------|
-----------------------------|-------------------|-------------------|
-----------------------------|-------------------|-------------------|
--0--------------0-0-0-0-0-0-|--4----------------|--3----------------|


  W                   W                   W                 
-------------------|-------------------|-------------------|
-------------------|-------------------|-------------------|
-------------------|-------------------|-------------------|
--2----------------|--1----------------|--L----------------|


  W                  
-------------------||
-------------------||
-------------------||
--L----------------||




Duration Legend
---------------
W - whole
H - half
Q - quarter
E - 8th
S - 16th
T - 32nd
X - 64th
. - note dotted
|-n-|  - n-tuplets


Tablature Legend
----------------
L - tied note
x - dead note
g - grace note
(n) - ghost note
> - accentuded note
NH - natural harmonic
AH - artificial harmonic
TH - tapped harmonic
SH - semi harmonic
PH - pitch harmonic
h - hammer on
p - pull off
b - bend
br - bendRelease
pb - preBend
pbr - preBendRelease
brb - bendReleaseBend
\n/ - tremolo bar dip
\n - tremolo bar dive
-/n - tremolo bar Release up
/n\ - tremolo bar inverted dip
/n - tremolo bar return
-\n - tremolo bar Release down
S - shift slide
s - legato slide
/ -  slide into from below or out of upwards
\ -  slide into from above or out of downwards
~ - vibrato
W - wide vibrato
tr - trill
TP - tremolo picking
T - tapping
S - slap
P - pop
< - fade in
^ - brush up
v - brush down

            
            
Suggest correction
Creating personal tab
Creating personal tab
You can edit any tab online and save it as your Personal.

You can edit, replace or remove any tab part or add personal notes – all changes will be seen only by you.

Personal tabs can be accessed anytime from any device, even offline.
Learn more »
Give kudos to tab author, rate the tab!
1 2 3 4 5
comments
print report bad tab
2 comments total.
+2 reply
thunderhawk 535 Apr 24, 2010 01:54 PM

it looks correct, but why did you have to make it so long? like really, 8 pages long, you know how inconvenient that is when ur playing a long and u have to stop and turn the page over. or like put them on ur floor and jus tlook down the whole time. its just...no. sorry, i cant use this tab. just do the standard tab, if there is a part that plays twice in a row, do a times 2, dont just re write it, it take sup too much cpace. and use the whole line, dont do 2 bars then go down.

0 reply
SFBassist 10 Jan 04, 2013 04:04 PM

I played along but the autoscroll has to be on a faster speed. its complicated but yes please make this shorter.

guest
You may want to rate the tab now too:
select rating
Wanna post a correction for this tab? Suggest correction