Oops, an error
Loading. Please wait.

This Song Is Called tab

version 1
version 1

Whole song

Interactive

17,935 views 1 this week
8 commentsread comments
1 2 3 4 5
x 7
add to favorites
×
Save as Personal and add changes to this tab that will be seen only by you. Learn more ›
×
You can save this tab as Personal to edit and correct it or add notes. All changes will be seen only by you. Learn more »
launch autoscroll
font size
0
reset
how to read this tab
guitar tuner
edit
Autoscroll
slow
fast
+/-
esc
set tempo
stop
---------------------------The Devil Wears Prada-----------------------------|
----------------------------This-Song-Is-Called------------------------------|
---------------------------------Plagues-------------------------------------|
       Tuning - Drop D ( D A D G B e )
    Tabbed By - Joe B.

                         April 4,2008 1:15 PM
                        
                        
                      UPDATED    June 13th 2008
                              - Fixed Guitar I's first riff
                              - Fixed Interlude 
                              - KINDA fixed ending chords(Still not perfect)

                              LEGEND
                        ====+==========+====
                         PM - Palm Mute
                         h  - Hammer On
                         p  - Pull Off
                         ~  - Let Ring
                         / \- Slide (Up,Down)
                         tr - Tremelo Picking

 Both Guitars
|---------------------|
|---------------------|
|--8~~~---5-5-5~~~-0--|
|--8~~~---5-5-5~~~-0--|
|--8~~~---5-5-5~~~-0--|
PM        . .      .
-------------------------------------------------------------------------------

Guitar I
|-------------------------------------------------------------------|
|-------------------------------------------------------------------|
|-------------------------------------------------------------------|
|------------------------10h12p10----------------------7h8p7--------|\
|-----8--10----12-10-------------12-----8--7--8--7----------8-------| \
|-8-8--8---8-8---8--8-8--------------0-0--0-00--0--0-0--------------|  \
PM. .  .   . .   .  . .               . .  . ..  .  .  .                \
                                                                         \
                                                                          \x3
                                                                          /
|-----------------------------------------------------------|            /
|-----------------------------------------------------------|           /
|-----------------------------------------------------------|          /
|-------------------7h8p7---------------------7h8p7---------|         /
|----5--7--8--7----------8------5--7--8--7----------8-------|        /
|-0-0--0-00--0--0-0---------0-0--0--00--0--0-0--------------|       /
PM. .  . ..  .  .  .        . .  .  ..  .  . .



Guitar II  (Strumming Pattern not shown)
|----------------------------------------------------------------|
|----------------------------------------------------------------|
|----------------------------------------------------------------|
|-8------------------5------------------------------0------------|
|-8------------------5------------------------------0------------|
|-8------------------5------------------------------0------------|

-----------------------------------------------------------------------------
Guitar I
|-----------------------------------|
|-----------------------------------|
|-----------------------------------|
|-0-0-0-0-0-0-0-0-0-0-0-0-0-0-0-0-0-|
|-0-0-0-0-0-0-0-0-0-0-0-0-0-0-0-0-0-|
|-0-0-0-0-0-0-0-0-0-0-0-0-0-0-0-0-0-|
PM. . . . . . . . . . . . . . . . .

Guitar II
|---------------------|
|---------------------|
|---------------------|
|---0---0---0---0---0-|
|---0---0---0---0---0-|
|---0---0---0---0---0-|


------------------------------------------------------------------------------

Guitar I [ ]=Every other time
|----------|---------------------|-----------------------|
|----------|---------------------|-------Last Ending-----|
|------7/9-|---------------------|-----------------------|
|------x-x-|-8-7-3-3-3-3-3-[5-5]-|-888888810101010101010-|
|--000-5/7-|-8-7-3-3-3-3-3-[5-5]-|-888888810101010101010-|
|--000-----|-8-7-3-3-3-3-3-[5-5]-|-888888810101010101010-|
PM ...

Guitar II
|----------|------------------------|-----------------------|
|----------|------------------------|-------Last Ending-----|
|------5/7-|-----[10-10-10-10-10-10]|-----------------------|
|------x-x-|-8-7-[x--x--x--x--x--x]-|-888888810101010101010-|
|--000-3/5-|-8-7-[8--8--8--8--8--8]-|-888888810101010101010-|
|--000-----|-8-7--------------------|-888888810101010101010-|
PM ...

-----------------------------------------------------------------------------

Guitar I
|---------|--------------------|
|---X2----|--------------------|
|---------|-10~----------9~~~7-|
|-0-0-0-0-|-x~~-0-0-0-0--x~~~x-|
|-0-0-0-0-|-8~~-0-0-0-0--7~~~5-|
|-0-0-0-0-|-----0-0-0-0--------|
PM. . . .       . . . .

Guitar II
|---------|--------------------|
|---X2----|--------------------|
|---------|-14~----------12~~10|
|-0-0-0-0-|-x~~-0-0-0-0--x~~~x-|
|-0-0-0-0-|-12~-0-0-0-0--10~~8-|
|-0-0-0-0-|-----0-0-0-0--------|
PM. . . .       . . . .
-----------------------------------------------------------------------------
 (Thanks to bulletrocks522 for helping me figure this part out!) 

Guitar I w/ Delay
|-----------------------------------------------------|
|-6p3-----10~~~~~8/10\8---6p3----------5-/-6-\-5-/-6--|
|-----5/7--------------------5/7--7~~~~---------------|
|-----------------------------------------------------|
|-----------------------------------------------------|
|-----------------------------------------------------|
Guitar II w/ Delay
|-----------------------------------------------|
|---------10~~~~~~------------------------------|
|-----------------------------------------------|
|---------------------------5-/-8--8--5-/-7~~~~-|
|-----------------------------------------------|
|-----------------------------------------------|

-----------------------------------------------------------------------------

Both Guitars
|---------------------------------------------------------------|
|---------------------------------------------------------------|
|---------------------------------------------------------------|
|-0-0-0-0-0-0-0-0-0-0-0-0-0-0-0-0-0-0-0-0-0-0-0-0-0-0-0-0-0-0---|
|-0-0-0-0-0-0-0-0-0-0-0-0-0-0-0-0-0-0-0-0-0-0-0-0-0-0-0-0-0-0---|
|-0-0-0-0-0-0-0-0-0-0-0-0-0-0-0-0-0-0-0-0-0-0-0-0-0-0-0-0-0-0---|

Guitar II
|----------------------------------------|
|----------------------------------------|
|----------------------------------------|
|--0~~~-----0~~~--------0~~~-------0~~~--|
|--0~~~-0-0-0~~~--0-0-0-0~~~--0000-0~~~--|
|--0~~~-0-0-0~~~--0-0-0-0~~~--0000-0~~~--|
PM      . .       . . .       ....


Guitar I
|-------------------------------|
|-------------------------------|
|---7tr----9tr----10tr----12tr--|
|-------------------------------|
|-------------------------------|
|-------------------------------|

Guitar II
|----------------------------------------|
|----------------------------------------|
|----------------------------------------|
|--0---0---0---0-------------------------|
|--0---0---0---0-------------------------|
|--0---0---0---0-----3--/--12--12--\--3--|

Guitar I
|-------------------------------|
|-------------------------------|
|---7tr----9tr----10tr----12tr--|
|-------------------------------|
|-------------------------------|
|-------------------------------|

Guitar II
|-------------------------------|
|-------------------------------|
|-------------------------------|
|--00-00-0000000-00-00-0000000--|
|--00-00-0000000-00-00-0000000--|
|--00-00-0000000-00-00-0000000--|
PM .. .. ....... .. .. .......

Guitar I
|-------------------------------|
|-------------------------------|
|---7tr----9tr----10tr----12tr--|
|-------------------------------|
|-------------------------------|
|-------------------------------|

-----------------------------------------------------------------------------

Both Guitars
|--------------------|--------------------------------|
|--------------------|--------------------------------|
|--------------------|--------------------------------|
|-0-0--0-0-0-0-0-0-0-|--0-0--0-0-0-0-0-0-0---8-7--5-3-|
|-0-0--0-0-0-0-0-0-0-|--0-0--0-0-0-0-0-0-0---8-7--5-3-|
|-0-0--0-0-0-0-0-0-0-|--0-0--0-0-0-0-0-0-0---8-7--5-3-|
PM. .  . . . . . . .    . .  . . . . . . .


Both
|--------------|--------------------------------|
|--------------|--------------------------------|
|----14-----15-|---14-14-14-----------14-----15-|
|--0--x-0-0--x-|-0--x--x--x-0-0-0-0-0--x-0-0--x-|
|--0-12-0-0-13-|-0-12-12-12-0-0-0-0-0-12-0-0-13-|
|--0----0-0----|-0----------0-0-0-0-0----0-0----|
PM .    . .      .          . . . . .

Both
|--------------|
|--------------|
|--------------|
|--------------|
|--4--3--2--1--|
|--5--4--3--2--|

            
            
Suggest correction
Creating personal tab
Creating personal tab
You can edit any tab online and save it as your Personal.

You can edit, replace or remove any tab part or add personal notes – all changes will be seen only by you.

Personal tabs can be accessed anytime from any device, even offline.
Learn more »
comments
print report bad tab
8 comments total. Showing first comments.
0 reply
Madne$$ 10 Apr 05, 2008 11:21 AM

nice one dude.


your a star for doing this :).

im gonna learn it now, and see if anymistake or improvements needed, but from this tab, probs not :D

0 reply
Madne$$ 10 Apr 05, 2008 03:10 PM

right ive played it.

absolute perfect (Y)(Y)

abit unsure about the little solo work

Guitar I w/ Delay
|----------5~~~~-3-\-5-/-3--------------------|
|-6p0-----------------------6p0------5~~~~~~--|
|-----5p0-----------------------5p0-----------|
|---------------------------------------------|
|---------------------------------------------|
|---------------------------------------------|
Guitar II w/ Delay
|---------5~~~~~~~~~~---------------------------|
|-----------------------------------------------|
|-----------------------------------------------|
|---------------------------5-\-8--8--5-\-7~~~~-|
|-----------------------------------------------|
|-----------------------------------------------|


but ill keep on playing it, intll i get it (Y)(Y)

thanks dude

0 reply
bloodyskull 31 Apr 05, 2008 07:44 PM

just changed from the 5 pull-off on the g to 5 hammer-on 7


Guitar I w/ Delay
|----------5~~~~-3-\-5-/-3--------------------|
|-6p0-----------------------6p0------5~~~~~~--|
|-----5h7-----------------------5p7-----------|
|---------------------------------------------|
|---------------------------------------------|
|---------------------------------------------|

other than that it sounds great, thanks a lot!

guest
You may want to rate the tab now too:
select rating
Wanna post a correction for this tab? Suggest correction