Oops, an error
Loading. Please wait.

Who Speaks Spanish Colon Quesadailla tab

3,899 views 3 this week
5 commentsread comments
1 2 3 4 5
x 4
add to favorites
×
Save as Personal and add changes to this tab that will be seen only by you. Learn more ›
×
You can save this tab as Personal to edit and correct it or add notes. All changes will be seen only by you. Learn more »
launch autoscroll
font size
0
reset
how to read this tab
guitar tuner
edit
Autoscroll
slow
fast
+/-
esc
set tempo
stop
"Who Speaks Spanish, Colon Quesadilla" by The Devil Wears Prada
off of the album Dear Love: A Beautiful Discord

well here it is. so whos going to help get "you cant spell crap without c" 
and "number three, never forget" this is my first TDWP tab but ill work on those.

0:00-0:04
E------------------------------------------------|
B------------------------------------------------|
G-1414-14-14-14-1414-14-14-14-14-1414-14-14-1414-|
D-1313-13-13-13-1313-13-13-13-13-1313-13-13-1313-|
A-1212-12-12-12-1212-12-12-12-12-1212-12-12-1212-|
D------------------------------------------------|

0:04-0:16
E----------------------------|
B----------------------------|
G----------------------------|
D---------5-7---5-7---5-7----|
A-0-0-0-0~----0~----0~----0~-|
D-0-0-0-0~----0~----0~----0~-|
  . . . .     .     .     .

0:16-0:36
E-------------------------------------|
B-------------------------------------|
G-------------------------------------|
D-------------------------------------| 
A-3p0-5p0-7p0-8p0-7p0-8p0-10-10-10-10-|
D-------------------------------------|
                                         x4
E-----------------------------|
B-----------------------------|
G-----------------------------|
D-8p7p0-10p0-8p7p0-10p0-8p7p0-|
A-----------------------------|
D-----------------------------|

0:36-0:45
E-8----8---8~--|
B--------------|
G--10~--10-----|  x4
D--------------|
A--------------|
D--------------|

0:45-1:07
E---------------------------------------|
B---------------------------------------|
G---------------------------------------|  x4
D-7------7---7---7-5-3------3---3---3-5-|
A-5-00-0-5-0-5-0-5-3-1-00-0-1-0-1-0-1-3-|
D---00-0---0---0-------00-0---0---0-----|
    .. .   .   .       .. .   .   .  


0:57-1:07 (this part is played on top of above part after 2 times)
E-------------------------------------------|
B-------------------------------------------|
G-9-10-9-10-12-10-9-10-9-10-9-10-12-10-9-10-|
D-------------------------------------------|
A-------------------------------------------|
D-------------------------------------------|
                                                x2
E------------------------------------------|
B-----------10-------------------13--------|
G-9-10-9-10---10-9-10-9-10-9-10----10-9-10-|
D------------------------------------------|
A------------------------------------------|
D------------------------------------------|

1:07-1:10
E-----------------------------|
B-----------------------------|
G-7/9999/10101010101010-------|
D-x/xxxx/-x-x-x-x-x-x-x-\\\\\-|
A-5/7777/-8-8-8-8-8-8-8-\\\\\-|
D-----------------------\\\\\-|

1:10-1:28                                                                 
E---------------------------------------|
B---------------------------------------|
G-----7/9999/101010101010---------------|
D-333-x/xxxx/-x-x-x-x-x-x-5555-55555555-|
A-333-5/7777/-8-8-8-8-8-8-5555-55555555-|
D-333---------------------5555-55555555-|
                                            x2
E------------------------------------|
B------------------------------------|
G-----7/9999/101010101010------------|
D-333-x/xxxx/-x-x-x-x-x-x-8888888888-|
A-333-5/7777/-8-8-8-8-8-8-8888888888-|
D-333---------------------8888888888-|

1:28-1:38
E-------------------|
B-------------------|
G-------------------|
D-0~-0-0~-0-0~-0-0~-|
A-0~-0-0~-0-0~-0-0~-|
D-0~-0-0~-0-0~-0-0~-|
     .    .    . 

1:38-2:34
E------------------------------------------------------------------|
B-----10----10----12----13----13------10----10----12----13----13---|
G---10----10----10----10----10--10--10----10----10----10----10--10-| x6
D-12----12----12----12----12------11----11----11----11----11-------|
A------------------------------------------------------------------|
D------------------------------------------------------------------|

2:34-2:53 bass solo
E----------------------|
B----------------------|
G-101010101010-6666666-|
D--x-x-x-x-x-x-xxxxxxx-|
A--8-8-8-8-8-8-4444444-|
D----------------------|

2:53-3:03 Guitar 1
E------------------|
B------------------|
G------------------| x2
D-0~-0000000000000-|
A-0~-0000000000000-|
D-0~-0000000000000-|  

Guitar 2
E-------------------------|
B--7-7-7-7-7-7--333333333-|
G-101010101010--666666666-| x2
D-------------------------|
A-------------------------|
D-------------------------|
 

3:03-3:22
E------------|
B------------|
G------------| x8 
D------------|
A-0000-0000--|
D-0000-0000--|
  .... ....

3:22-3:35
E---------------------3//------5//--------------8\\------3//-|
B---------------------3//------5//--------------8\\------3//-|
G---------------------3//------5//--------------8\\------3//-|
D---------------------3//------5//--------------8\\------3//-|
A-5-3-2-3-2-1-0--0000-3//-0000-5//-5-3-2-3-0000-8\\-0000-3//-|
D-5-3-2-3-2-1-0--0000-3//-0000-5//-5-3-2-3-0000-8\\-0000-3//-|
  . . . . . . .  ....     ....             ....     ....

3:35-3:58
E------------------------------------|
B------------------------------------|
G-1010---1010---10--1616---17-171717-|  x4
D--9-9----9-9----9--1515---16-161616-|
A--8-8-0--8-8-0--8--1414-0-15-151515-|
D------0------0----------0-----------|
       .      .          . 

            
            
Suggest correction
Creating personal tab
Creating personal tab
You can edit any tab online and save it as your Personal.

You can edit, replace or remove any tab part or add personal notes – all changes will be seen only by you.

Personal tabs can be accessed anytime from any device, even offline.
Learn more »
comments
print report bad tab
5 comments total. Showing first comments.
0 reply
Madne$$ 10 Jun 09, 2008 11:02 AM

DUDE, THANKS SOO MUCH FOR THIS M8.

IM GONNA PLAY IT LATER, LOOKING FORWARD TO PLAYING IT :).

ill let u knwo if things dont sound right and stuff:),

thanks for doing this tab :)

0 reply
Madne$$ 10 Jun 09, 2008 11:20 PM

E---------------------------------------|
B---------------------------------------|
G---101010101010--66666-----------------|
D--- x-x-x-x-x-x--xxxxx-----------------|
A----8-8-8-8-8-8--44444-----------------|
D---------------------------------------|

during the bass solo i noticed a guitar riff played here

0 reply
Madne$$ 10 Jun 09, 2008 11:20 PM

E---------------------------------------|
B---------------------------------------|
G---101010101010--66666-----------------|
D--- x-x-x-x-x-x--xxxxx-----------------|
A----8-8-8-8-8-8--44444-----------------|
D---------------------------------------|

during the bass solo i noticed a guitar riff played here

guest
You may want to rate the tab now too:
select rating
Wanna post a correction for this tab? Suggest correction