Oops, an error
Loading. Please wait.

Highway Robbery bass

version 1
version 1

Whole song

Interactive

1,657 views 3 this week
1 commentread comment
1 2 3 4 5
2 more votes to show rating
add to favorites
×
Save as Personal and add changes to this tab that will be seen only by you. Learn more ›
×
You can save this tab as Personal to edit and correct it or add notes. All changes will be seen only by you. Learn more »
launch autoscroll
font size
0
reset
guitar tuner
edit
Autoscroll
slow
fast
+/-
esc
set tempo
stop
Author
Difficulty
Tuning: Standard


|---------------------------------------------------|
|---------------------------------------------------|
|---------------------------------------------------|
|-2222222222222222222222222222222222222222222222222-|


|-------------------------------------------------------------|
|-----------------------------------------------2-------------|
|-----------------3-3-3-3-1-1-----------------3---3-2-1-1-1-1-|
|-3-3-3-3-2-2-2-2-------------3-3-3-3-2-2-2-2-----------------|x2

|-----------------------------------------------------------------|
|-----------------------------------------------2-----------------|
|-----------------3-3-3-3-1-1-----------------3---3-2-1-1---------|
|-3-3-3-3-2-2-2-2-------------3-3-3-3-2-2-2-2-------------2-2-1-1-|

|-----------------|
|-0-0-0-0-0-0-0-0-|
|-----------------|
|-----------------|


|---------------------------------|
|-----------------0-0-0-0-0-0-0-0-|
|---------------------------------|
|-1-1-1-4---4-0-------------------|x3

|-----------------|
|-----------------|
|-----------------|
|-1-1-1-4---4-0---|


|-------------------------------------------------------------|
|-----------------------------------------------2-------------|
|-----------------3-3-3-3-1-1-----------------3---3-2-1-1-1-1-|
|-3-3-3-3-2-2-2-2-------------3-3-3-3-2-2-2-2-----------------|

|-----------------------------------------------------------------|
|-----------------------------------------------2-----------------|
|-----------------3-3-3-3-1-1-----------------3---3-2-1-1---------|
|-3-3-3-3-2-2-2-2-------------3-3-3-3-2-2-2-2-------------2-2-1-1-|

|-----------------|
|-0-0-0-0-0-0-0-0-|
|-----------------|
|-----------------|


|---------------------------------|
|-----------------0-0-0-0-0-0-0-0-|
|---------------------------------|
|-1-1-1-4---4-0-------------------|

|---------------------------|
|---------------------------|
|---------------------------|
|-1-1-1-4---4-0---1---4--1--|


|---------------------------------------------------------|
|-------------------------------------------0~--------0~--|
|---------------------------------------------------------|
|-8-8-8~------4-4-4~------8-8-8~------2-2-2-----2-2-2-----|

|-----------------------------------------------------------------|
|-----------------------------------------------------------------|
|-----------------------------------------------------------------|
|-8-8-8-8-8-8-8-8-8-8-8-8-8-8-8-8-4-4-4-4-4-4-4-4-4-4-4-4-4-2-2-2-|

|---------------------------------|
|-----------------0-0-0-0-1-1-1-1-|
|---------------------------------|
|-8-8-8-8-8-8-8-8-----------------|


|-------------------------------------------------------------|
|-----------------------------------------------2-------------|
|-----------------3-3-3-3-1-1-----------------3---3-2-1-1-1-1-|
|-3-3-3-3-2-2-2-2-------------3-3-3-3-2-2-2-2-----------------|

|-----------------------------------------------------------------|
|-----------------------------------------------2-----------------|
|-----------------3-3-3-3-1-1-----------------3---3-2-1-1---------|
|-3-3-3-3-2-2-2-2-------------3-3-3-3-2-2-2-2-------------2-2-1-1-|

|-----------------|
|-0-0-0-0-0-0-0-0-|
|-----------------|
|-----------------|


|---------------------------------|
|-----------------0-0-0-0-0-0-0-0-|
|---------------------------------|
|-1-1-1-4---4-0-------------------|

|---------------------------------|
|---------------------------------|
|-----------------x-x-x-x-x-x-x-x-|
|-1-1-1-4---4-0-------------------|

|---------------------------------|
|-----------------0-0-0-0-0-0-0-0-|
|---------------------------------|
|-1-1-1-4---4-0-------------------|

|---------------------------|
|---------------------------|
|---------------------------|
|-1-1-1-4---4-0---1---4--1--|


|---------------------------------------------------------|
|-------------------------------------------0~--------0~--|
|---------------------------------------------------------|
|-8-8-8~------4-4-4~------8-8-8~------2-2-2-----2-2-2-----|

|-----------------------------------------------------------------|
|-----------------------------------------------------------------|
|-----------------------------------------------------------------|
|-8-8-8-8-8-8-8-8-8-8-8-8-8-8-8-8-4-4-4-4-4-4-4-4-4-4-4-4-4-2-2-2-|

|-----------------------------------------------------|
|-----------------0-0-0-0-1-1-1-1-------0~--------0~--|
|-----------------------------------------------------|
|-8-8-8-8-8-8-8-8-----------------2-2-2-----2-2-2-----|


|----------------------------------------------------------|
|----------------------------------------------------------|
|----------------------------------------------------------|
|-22222222222222222222222222222222222222222222222222222222-|


Drum/Guitar break.


|---------------------------------------------------------|
|-------------------------------------------0~--------0~--|
|---------------------------------------------------------|_________         
|-8-8-8~------4-4-4~------8-8-8~------2-2-2-----2-2-2-----|         \
                                                                     \
|-----------------------------------------------------------------|   x2
|-----------------------------------------------------------------|  /
|-----------------------------------------------------------------| /
|-8-8-8-8-8-8-8-8-8-8-8-8-8-8-8-8-4-4-4-4-4-4-4-4-4-4-4-4-4-2-2-2-|/
                                                           _______/
|-----------------------------------------------------|   /
|-----------------0-0-0-0-1-1-1-1-------0~--------0~--|  /
|-----------------------------------------------------| /
|-8-8-8-8-8-8-8-8-----------------2-2-2-----2-2-2-----|/
Suggest correction
Creating personal tab
Creating personal tab
You can edit any tab online and save it as your Personal.

You can edit, replace or remove any tab part or add personal notes – all changes will be seen only by you.

Personal tabs can be accessed anytime from any device, even offline.
Learn more »
Give kudos to tab author, rate the tab!
1 2 3 4 5
comments
print report bad tab
1 comment total.
0 reply
InsomniaJunkie 10 Aug 16, 2014 07:12 PM

I'll tell you what! Great piece of accurate tablature right there. I prefer to play all those open Ds on the A string 5th fret. Playing it on a lower string makes it easier to play and sounds better (on my setup anyway).

|-----------------------------------------------------|
|-----------------------------------------~--------~--|
|-----------------5-5-5-5-6-6-6-6-------5---------5---|
|-8-8-8-8-8-8-8-8-----------------2-2-2-----2-2-2-----|

instead of this:
|-----------------------------------------------------|
|-----------------0-0-0-0-1-1-1-1-------0~--------0~--|
|-----------------------------------------------------|
|-8-8-8-8-8-8-8-8-----------------2-2-2-----2-2-2-----|

for example

It's not so much a correction (it's the same note!) as it is a kudos. Thanks man. =)

guest
You may want to rate the tab now too:
select rating
Wanna post a correction for this tab? Suggest correction