Oops, an error
Loading. Please wait.

Milk Lizard bass

version 1
version 1

Whole song

Interactive

10,906 views 12 this week
no commentswrite comment
1 2 3 4 5
x 5
add to favorites
×
Save as Personal and add changes to this tab that will be seen only by you. Learn more ›
×
You can save this tab as Personal to edit and correct it or add notes. All changes will be seen only by you. Learn more »
launch autoscroll
font size
0
reset
guitar tuner
edit
Autoscroll
slow
fast
+/-
esc
set tempo
stop
Difficulty
/=slide
"=tremello pick like 16th notes

(Intro)
G|----------------|----------------|----------------|----------------|
D|----------------|----------------|----------------|----------------|
A|----------------|----------------|----------------|----------------|
E|-2-4/2----------|-----------2-4/2|-----------2-4/2|-----------2-4/2|

(riff 1)
   E E E E E E E E  E E E E E E E E  E E E E E E E E  E E E E E E E E
G|----------------|----------------|----------------|----------------|
D|----------------|----------------|----------------|----------------|
A|----------------|-----5---2------|-5---2----------|-----5---2------|
E|---2---2---3-h-4|---4---4---4-4-4|---4---4-4-2-2-4|---4---4---4-4-4|

   E E E E E E E E  E E E E E E E E  E E E E E E E E  E E E E E E E E
G|----------------|----------------|----------------|----------------|
D|----------------|----------------|----------------|----------------|
A|-5---2----------|-----5---2------|-5---2----------|-----5---2------|
E|---4---4-4-2-2-4|---4---4---4-4-4|---4---4-4-2-2-4|---4---4---4-4-4|

   E E E E E E E E  E E E E E E E E  E E E E E E E E  E E E E E E E E
G|----------------|----------------|----------------|----------------|
D|----------------|----------------|----------------|----------------|
A|----------------|-----5---2------|-5---2----------|-----5---2------|
E|---2---2---3-h-4|---4---4---4-4-4|---4---4-4-2-2-4|---4---4---4-4-4|

   E E E E E E E E  E E E E E E E E  E E E E E E E E  E E E E E E E E
G|----------------|----------------|----------------|----------------|
D|----------------|----------------|----------------|----------------|
A|-5-4-5-4-5-4-2--|-----5---2------|-5---2----------|-----5---2------|
E|---------------4|---4---4---4-4-4|---4---4-4-2-2-4|---4---4---4-4-4|

(breakdown-ish riff number 2 thing)
   E E E E E E E E  E E E E E E E E  E E E E E E E E  E E E E E E E E
G|----------------|----------------|----------------|----------------|
D|----------------|----------------|----------------|----------------|
A|-5--------------|----------------|----------------|----------------|
E|---2---2---3-h-4|-----4-4-4---4--|-7-4-4---4-7-4-4|---4-7-4-4---4-7|

   E E E E E E E E  E E E E E E E E  E E E E E E E E  E E E E E E E E
G|----------------|----------------|----------------|----------------|
D|----------------|----------------|----------------|----------------|
A|----------------|----------------|----------------|----------------|
E|-4-4---4-7-6---4|/0-7-4-4-4---4--|-7-4-4---4-7-4-4|---4-7-4-4---4-7|

   E E E E E E E E  E E E E E E E E  E E E E E E E E  E E E E E E E E
G|----------------|----------------|----------------|----------------|
D|----------------|----------------|----------------|----------------|
A|----------------|----------------|----------------|----------------|
E|-4-4---4-7-6---4|/0-4-4-4-4---4--|-4-4-4---4-4-4-4|---4-4-4-4---4--|

   E E E E E E E E  E E E E E E E E  E E E E E E E E  E E E E E E E E
G|----------------|----------------|----------------|----------------|
D|----------------|----------------|----------------|----------------|
A|----------------|----------------|----------------|----------------|
E|-4-4-4---4-4-4-4|---4-4-4-4---4--|-4-4-4---4-4-4-4|---4-4-4-4---4--|

   E E E E E E E E  E E E E E E E E  E E E E E E E E  E E E E E E E E
G|----------------|----------------|----------------|----------------|
D|----------------|----------------|----------------|----------------|
A|----------------|----------------|----------------|----------------|
E|-4-4-4---4-4-4-4|---4-4-4-4---2--|-2-2-2-2-2-2-2-2|-2-2-2-2-2-2-2-2|

REPEAT ENTIRE VERSE AND BREAKDOWNISH RIFF THING

(chorus)
   E E E E E E E E  E E E E E E E E  E E E E E E E E  E E E E E E E E
G|----------------|----------------|----------------|----------------|
D|----------------|----------------|----------------|----------------|
A|----------------|----------------|----------------|----------------|
E|-2-2-2-2-2-2-2-2|-2-2-2-2-2-2-2-2|-7-7-7-7-7-7-7-7|-7-7-7-7-7-7-7-7|

   E E E E E E E E  E E E E E E E E  E E E E E E E E  E E E E E E E E
G|----------------|----------------|----------------|----------------|
D|----------------|----------------|----------------|----------------|
A|----------------|----------------|----------------|----------------|
E|-3-3-3-3-3-3-3-3|-3-3-3-3-3-3-3-3|-0-0-0-0-0-0-0-0|-0-0-0-0-0-0-0-0|

   E E E E E E E E  E E E E E E E E  E E E E E E E E  E E E E E E E E
G|----------------|----------------|----------------|----------------|
D|----------------|----------------|----------------|----------------|
A|----------------|----------------|----------------|----------------|
E|-0-0-0-0-0-0-0-0|-3-3-3-3-3-3-3-3|-2-2-2-2-2-2-2-2|-7-7-7-7-7-7-7-7|

   E E E E E E E E  E E E E E E E E  E E E E E E E E  E E E E E E E E
G|----------------|----------------|----------------|----------------|
D|----------------|----------------|----------------|----------------|
A|----------------|----------------|----------------|----------------|
E|-7-7-7-7-7-7-7-7|-3-3-3-3-3-3-3-3|-3-3-3-3-3-3-3-3|-0-0-0-0-0-0-0-0|

   E E E E E E E E  E E E E E E E E  E E E E E E E E  E E E E E E E E
G|----------------|----------------|----------------|----------------|
D|----------------|----------------|----------------|----------------|
A|----------------|----------------|----------------|----------------|
E|-0-0-0-0-0-0-0-0|-3-3-3-3-3-3-3-3|-2-2-2-2-2-2-2-4|----------------|

VERSE AGAIN!
of course there r some thing u dont play twice but you'll know)

chorus again!

extended chorus:

   E E E E E E E E  E E E E E E E E  E E E E E E E E  E E E E E E E E
G|----------------|----------------|----------------|----------------|
D|----------------|----------------|----------------|----------------|
A|----------------|----------------|----------------|----------------|
E|--7"--7"--7"--7"|-7"--7"--7"--7"-|--3"--3"--3"--3"|--3"--3"--3"--3"|

   E E E E E E E E  E E E E E E E E  E E E E E E E E  E E E E E E E E
G|----------------|----------------|----------------|----------------|
D|----------------|----------------|----------------|----------------|
A|----------------|----------------|----------------|----------------|
E|--0"--0"--0"--0"|--0"--0"--0"--0"|--3"--3"--3"--3"|--2"--2"-2-2-2-2|

   E E E E E E E E  E E E E E E E E  E E E E E E E E  E E E E E E E E
G|----------------|----------------|----------------|----------------|
D|----------------|----------------|----------------|----------------|
A|----------------|---------5-7-5--|----------------|----------------|
E|-7-7-7-7-7-7-7-7|-7-7-7-9-------7|-3-3-3-3-3-3-3-3|-3-5-7-7-7-5-5-3|

   E E E E E E E E  E E E E E E E E  E E E E E E E E  E E E E E E E E
G|----------------|----------------|----------------|----------------|
D|----------------|----------------|----------------|----------------|
A|----------------|-------------2--|----------------|----------------|
E|-0-0-0-0-0-0-0-0|-0-0-0-2-2-2---0|-3-3-3-3-3-3-3-3|-2-2-2-2-2-2-2-2|

   E E E E E E E E  E E E E E E E E  E E E E E E E E  E E E E E E E E
G|----------------|----------------|----------------|----------------|
D|----------------|----------------|----------------|----------------|
A|----------------|---------5-7-5--|----------------|---------2-5-2--|
E|-7-7-7-7-7-7-7-7|-7-7-7-9-------7|-3-3-3-3-3-3-3-3|-3-3-3-3-------3|

   E E E E E E E E  E E E E E E E E  E E E E E E E E  E E E E E E E E
G|----------------|----------------|----------------|----------------|
D|----------------|----------------|----------------|----------------|
A|----------------|-------------2--|----------------|---------2-5-2--|
E|-0-0-0-0-0-0-0-0|-0-0-0-2-2-2---0|-3-3-3-3-3-3-3-3|-3-3-3-3-------3|

   E E E E E E E E  E E E E E E E E  E E E E E E E E  E E E E E E E E
G|----------------|----------------|----------------|----------------|
D|----------------|----------------|----------------|----------------|
A|----------------|-------------2--|----------------|----------------|
E|-0-0-0-0-0-0-0-0|-0-0-0-2-2-2---0|-3-3-3-3-3-3-3-3|-2-2-2-2-2-2-2-4|

Suggest correction
Creating personal tab
Creating personal tab
You can edit any tab online and save it as your Personal.

You can edit, replace or remove any tab part or add personal notes – all changes will be seen only by you.

Personal tabs can be accessed anytime from any device, even offline.
Learn more »
comments
print report bad tab
guest
Wanna post a correction for this tab? Suggest correction