Oops, an error
Loading. Please wait.

Nothing To Forget Tab

64 views 9 this week
no commentswrite comment
1 2 3 4 5
2 more votes to show rating
add to favorites
launch autoscroll
font size
0
reset
how to read this tab
guitar tuner
Autoscroll
slow
fast
+/-
esc
set tempo
stop
Help us to improve Ultimate-Guitar.com Take our survey!
×
Author
Difficulty
intermediate
About this tab version
Includes main guitars and strings (Bridge) in standard tuning. Was this info helpful? Yes No
The Dillinger Escape Plan
"Nothing to Forget"


[Intro]
  G1
e|--5---8-5-----5-|--8-5-----5---5-|--6-----6---9---|--9-----9-------|
B|----------------|----------------|--------------9-|----9-----9-----|
G|7---7-----7-----|7-----7-7---7---|8---8-----8-----|6-----6-----7-6-|
D|----------------|----------------|----------------|----------------| X4
A|----------------|----------------|----------------|----------------|
E|----------------|----------------|----------------|----------------|

  G1
e|----------------|----------------|----------------|----------------|
B|6~--------------|----------------|----------------|----------------|
G|----------------|----------------|----------------|----------------|
D|----------------|----------------|----------------|----------------|
A|----------------|----------------|----------------|----------------|
E|----------------|----------------|----------------|----------------|
 |G2 PM            PM               PM               PM
e|----------------|----------------|----------------|----------------|
B|----------------|----------------|----------------|----------------|
G|----------------|----------------|----------------|----------------|
D|----------------|----------------|----------------|----------------|
A|3-3-3-3-3-3-3-3-|3-3-3-3-3-3-3-3-|6-6-6-6-6-6-5-5-|2-2-2-2-2-2-2-2-|
E|1-1-1-1-1-1-1-1-|1-1-1-1-1-1-1-1-|4-4-4-4-4-4-3-3-|0-0-0-0-0-0-0-0-|
  >     >     >    >     >     >    >     >     >     >     >     >   

e|----------------|----------------|----------------|----------------|
B|----------------|----------------|----------------|----------------|
G|----------------|----------------|----------------|----------------|
D|----------------|----------------|----------------|----------------|
A|----------------|----------------|----------------|----------------|
E|----------------|----------------|----------------|----------------|
 |
 |PM               PM               PM               PM
e|----------------|----------------|----------------|----------------|
B|----------------|----------------|----------------|----------------|
G|----------------|----------------|----------------|----------------|
D|----------------|----------------|----------------|----------------|
A|3-3-3-3-3-3-3-3-|3-3-3-3-3-3-3-3-|6-6-6-6-6-6-5-5-|2-2-2-2-2-2-2-2-|
E|1-1-1-1-1-1-1-1-|1-1-1-1-1-1-1-1-|4-4-4-4-4-4-3-3-|0-0-0-0-0-0-0-0-|
  >     >     >    >     >     >    >     >     >     >     >     >   

[Verse]

e|5-----5---5-----|5-----5---5-----|6-----6---6-----|4-----4---4-----|
B|----------------|----------------|----------------|----------------|
G|--7-7---7---7-7-|--7-7---7---7-7-|--8-8---8---8-8-|--6-6---6---6-6-|
D|----------------|----------------|----------------|----------------|
A|----------------|----------------|----------------|----------------|
E|----------------|----------------|----------------|----------------|
 |PM               PM               PM               PM               X4
e|----------------|----------------|----------------|----------------|
B|----------------|----------------|----------------|----------------|
G|----------------|----------------|----------------|----------------|
D|----------------|----------------|----------------|----------------|
A|3-3-3-3-3-3-3-3-|3-3-3-3-3-3-3-3-|6-6-6-6-6-6-5-5-|2-2-2-2-2-2-2-2-|
E|1-1-1-1-1-1-1-1-|1-1-1-1-1-1-1-1-|4-4-4-4-4-4-3-3-|0-0-0-0-0-0-0-0-|
  >     >     >    >     >     >    >     >     >     >     >     >   

e|----------------|----------------|----------------|----------------|
B|6~--------------|(6)~------------|(6)~------------|5~--------------|
G|----------------|----------------|----------------|----------------|
D|----------------|----------------|----------------|----------------|
A|----------------|----------------|----------------|----------------|
E|----------------|----------------|----------------|----------------|
 |PM               PM               PM               PM               X3
e|----------------|----------------|----------------|----------------|
B|----------------|----------------|----------------|----------------|
G|----------------|----------------|----------------|----------------|
D|----------------|----------------|----------------|----------------|
A|3-3-3-3-3-3-3-3-|3-3-3-3-3-3-3-3-|6-6-6-6-6-6-5-5-|2-2-2-2-2-2-2-2-|
E|1-1-1-1-1-1-1-1-|1-1-1-1-1-1-1-1-|4-4-4-4-4-4-3-3-|0-0-0-0-0-0-0-0-|
  >     >     >    >     >     >    >     >     >     >     >     >   

e|----------------|----------------|----------------|----------------|
B|6~--------------|(6)~------------|(6)~------------|----------------|
G|----------------|----------------|----------------|----------------|
D|----------------|----------------|----------------|----------------|
A|----------------|----------------|----------------|----------------|
E|----------------|----------------|----------------|----------------|
 |PM               gradually release palm mute and crescendo
e|----------------|----------------|----------------|----------------|
B|----------------|----------------|----------------|----------------|
G|----------------|----------------|----------------|----------------|
D|----------------|----------------|----------------|----------------|
A|3-3-3-3-3-3-3-3-|3-3-3-3-3-3-3-3-|6-6-6-6-6-6-5-5-|2-2-2-2-2-------|
E|1-1-1-1-1-1-1-1-|1-1-1-1-1-1-1-1-|4-4-4-4-4-4-3-3-|0-0-0-0-0-------|


[Chorus]

  G1,2
e|----------------|----------------|----------------|----------------|
B|----------------|----------------|----------------|----------------|
G|----------------|--------5-------|----6-----------|----------------|
D|8-----------7---|--------5-------|----6-----------|3---3---3-2-1---|
A|8-----------7---|--------3-------|----4-----------|3---3---3-2-1---|
E|6-----------5---|----------------|----------------|1---1---1-0-----|

                                                                      X2
e|----------------|----------------|----------------|----------------|
B|----------------|----------------|----------------|----------------|
G|----------------|--------5-------|----4-----------|----------------|
D|8-----------7---|--------5-------|----4-----------|3---3---3-2-1---|
A|8-----------7---|--------3-------|----2-----------|3---3---3-2-1---|
E|6-----------5---|----------------|----------------|1---1---1-0-----|


[Break]
  G1,2
e|----------------|----------------|----------------|----------------|
B|----------------|----------------|----------------|----------------|
G|----------------|----------------|----------------|----------------|
D|7---------------|----------------|8---------------|11--------------| X2
A|5---------------|----------------|6---------------|9---------------|
E|----------------|----------------|----------------|----------------|


[Verse]

e|5-----5---5-----|5-----5---5-----|6-----6---6-----|4-----4---4-----|
B|----------------|----------------|----------------|----------------|
G|--7-7---7---7-7-|--7-7---7---7-7-|--8-8---8---8-8-|--6-6---6---6-6-|
D|----------------|----------------|----------------|----------------|
A|----------------|----------------|----------------|----------------|
E|----------------|----------------|----------------|----------------|
 |PM               PM               PM               PM               X2
e|----------------|----------------|----------------|----------------|
B|----------------|----------------|----------------|----------------|
G|----------------|----------------|----------------|----------------|
D|----------------|----------------|----------------|----------------|
A|3-3-3-3-3-3-3-3-|3-3-3-3-3-3-3-3-|6-6-6-6-6-6-5-5-|2-2-2-2-2-2-2-2-|
E|1-1-1-1-1-1-1-1-|1-1-1-1-1-1-1-1-|4-4-4-4-4-4-3-3-|0-0-0-0-0-0-0-0-|
  >     >     >    >     >     >    >     >     >     >     >     >   

  G1,2
e|----------------|----------------|----------------|----------------|
B|----------------|----------------|----------------|----------------|
G|----------------|----------------|----------------|----------------|
D|3---------------|----------------|6---------------|2---------------| X2
A|3---------------|----------------|6---------------|2---------------|
E|1---------------|----------------|4---------------|0---------------|


[Chorus]

  G1,2
e|----------------|----------------|----------------|----------------|
B|----------------|----------------|----------------|----------------|
G|----------------|--------5-------|----6-----------|----------------|
D|8-----------7---|--------5-------|----6-----------|3---3---3-2-1---|
A|8-----------7---|--------3-------|----4-----------|3---3---3-2-1---|
E|6-----------5---|----------------|----------------|1---1---1-0-----|

                                                                      X2
e|----------------|----------------|----------------|----------------|
B|----------------|----------------|----------------|----------------|
G|----------------|--------5-------|----4-----------|----------------|
D|8-----------7---|--------5-------|----4-----------|3---3---3-2-1---|
A|8-----------7---|--------3-------|----2-----------|3---3---3-2-1---|
E|6-----------5---|----------------|----------------|1---1---1-0-----|

[Bridge]
  Strings (Ben on Keyboard)
e|4---------------|-------2----6---|2---------------|--------7---9---|
B|----------------|----------------|----------------|----------------|
G|4---------------|----------------|3---------------|----------------|
D|6---------------|----------------|4---------------|----------------|
A|----------------|----------------|----------------|----------------|
E|----------------|----------------|----------------|----------------|
 |G2
e|4---------------|----------------|2---------------|----------------|
B|4---------------|----------------|2---------------|----------------|
G|4---------------|----------------|3---------------|----------------|
D|6---------------|----------------|4---------------|----------------|
A|6---------------|----------------|4---------------|----------------|
E|4---------------|----------------|2---------------|----------------|

                                                                      X5
e|11--------------|------------9---|11--------------|-----------6----|
B|----------------|----------------|----------------|8---------------|
G|8---------------|----------------|13--------------|6---------------|
D|9---------------|----------------|14--------------|----------------|
A|----------------|----------------|----------------|----------------|
E|----------------|----------------|----------------|----------------|
 |
e|7---------------|----------------|0---------------|----------------|
B|7---------------|----------------|0---------------|4---------------|
G|8---------------|----------------|1---------------|3---------------|
D|9---------------|----------------|2---------------|5---------------|
A|9---------------|----------------|2---------------|6---------------|
E|7---------------|----------------|0---------------|3---------------|


[Bass Break]

Rest eight bars


[Chorus]

  G1,2
e|----------------|----------------|----------------|----------------|
B|----------------|----------------|----------------|----------------|
G|----------------|--------5-------|----6-----------|----------------|
D|8-----------7---|--------5-------|----6-----------|3---3---3-2-1---|
A|8-----------7---|--------3-------|----4-----------|3---3---3-2-1---|
E|6-----------5---|----------------|----------------|1---1---1-0-----|
                                                                      X4
e|----------------|----------------|----------------|----------------|
B|----------------|----------------|----------------|----------------|
G|----------------|--------5-------|----4-----------|----------------|
D|8-----------7---|--------5-------|----4-----------|3---3---3-2-1---|
A|8-----------7---|--------3-------|----2-----------|3---3---3-2-1---|
E|6-----------5---|----------------|----------------|1---1---1-0-----|


************************************

| x   Dead note
| (n) Hold note
| >   Accented note
| ~   Vibrato
| PM  Palm mute

************************************
Suggest correction
Give kudos to tab author, rate the tab!
1 2 3 4 5
comments
print report bad tab
guest
You may want to rate the tab now too:
select rating
Wanna post a correction for this tab? Suggest correction