Oops, an error
Loading. Please wait.

Setting Fire To Sleeping Giants tab

version 1
version 1

Whole song

Interactive

18,871 views 18 this week
8 commentsread comments
1 2 3 4 5
x 10
add to favorites
×
Save as Personal and add changes to this tab that will be seen only by you. Learn more ›
×
You can save this tab as Personal to edit and correct it or add notes. All changes will be seen only by you. Learn more »
launch autoscroll
font size
0
reset
how to read this tab
guitar tuner
backing track
0:00
0:00
edit
Autoscroll
slow
fast
+/-
esc
set tempo
stop
Author
Tabbed by: Nate Messina
Email: Kurt_Russe1@yahoo.com

Tuning:EADGBE


*Guitar 1 plays this, guitar 2 is doing something clean on B and e, i do know what it
is, but i don't feel like tabbing it because you can't hear it well and this is really
the main riff*

0:01 "First off, let me say....
e|----------------------------------|
B|----------------------------------|
G|----------------------------------|X7
D|---------------------------2---2--|
A|-0-0-0-3-0-0-0-2-2-2-0-2-3---3----|
E|----------------------------------|
pm--------------------------   -

*On the third repeat, at about 0:10 Guitar 2 quickly intervenes with distortion playing this:
           ~
e|--------------|
B|--------------|
G|---7br-5------|
D|---------7----|
A|--------------|
E|--------------|

*then goes back to that clean riff.

*Back to guitar 1
0:20  "I'm thinkin' 'bout another world"
e|----------------------------------|
B|----------------------------------|
G|----------------------------------|
D|----------------------------------|
A|-0-0-0-3-0-0-0-2------------2-----|
E|----------------------------0h1p0-|

0:23 "Toniiiiiiight"  (Both Guitars)
e|------------------------------------|
B|------------------------------------|
G|------------------------------------|X4
D|-2-2-2---2-2-2-4-4-4-------2---2----|
A|-0-0-0-3-0-0-0-2-2-2-0-2-3---2------|
E|------------------------------------|

0:34 "So drop the gown..." (Guitar 1)
e|----------------------------------|
B|----------------------------------|
G|----------------------------------|X8
D|---------------------------2---2--|
A|-0-0-0-3-0-0-0-2-2-2-0-2-3---3----|
E|----------------------------------|
pm--------------------------   -

*Once again, at about 0:44 Guitar 2 comes in and this time plays:

e|--------------------|
B|--------------------|
G|-------5-7br-5------|
D|---5-7---------7----|
A|--------------------|
E|--------------------|

*Then proceeds to play that same clean riff, only this time around it has a phaser on it.

*Both Guitars
0:57   "...felt before..."
e|------------------------------------|
B|------------------------------------|
G|------------------------------------|X4------------------------------|
D|-2-2-2---2-2-2-4-4-4-------2---2----|                                |
A|-0-0-0-3-0-0-0-2-2-2-0-2-3---2------|                                |
E|------------------------------------|                                |
                                                                       |
1:09 "Stranger's candyyyyy..." *Both Guitars*                          |
e|----------------------------------------------------------------|    | 
B|-3-3-3-3-3-3-3-3------------------------------------------------|    |
G|-0-0-0-0-0-0-0-0------------------------------------------------|X2--|
D|-x-x-x-x-x-x-x-x-2-2-2-2-2-2-2-2-7-7-7-7-7-7-7-7-5-5-5-5-5-5-5-5|    |
A|-3-3-3-3-3-3-3-3-2-2-2-2-2-2-2-2-7-7-7-7-7-7-7-7-5-5-5-5-5-5-5-5|    |
E|-1-1-1-1-1-1-1-1-0-0-0-0-0-0-0-0-5-5-5-5-5-5-5-5-3-3-3-3-3-3-3-3|    |
                                                                       |
1:20 "Close your eyes..."                                              |
e|---------------------------------------------------------------|     |
B|---------------------------------------------------------------|     |
G|---------------------------------------------------------------|-----|
D|---------------------------------------------------------------|
A|-3-3-----3-3-3-2---2-2---2-2-2-2-------------------------------|
E|-1-1-x-x-1-1-1-0-x-0-0-x-0-0-0-0-------------------------------|

1:23 (Guitar 1) "Tonight"
e|---------------------------------------------------------------|
B|---------------------------------------------------------------|
G|-4-4---7-7---6-6---3-3-----4---7---7---------------------------|----|
D|-3-3---6-6---5-5---2-2-----3---6---6---------------------------|    |
A|-2-2---5-5---4-4---1-1-----2---5---5---------------------------|    |
E|-----x-----x-----x-----x-x---x---x-----------------------------|    |
                                                                      | 
1:23 (Guitar 2)                                                       |
e|-17-17-17-18-17-17-18-17-17-18-17-17---------------------------|    |
B|--x--x--x--x--x--x--x--x--x--x--x--x---etc.--------------------|    |
G|-15-15-15-16-15-15-16-15-15-16-15-15---------------------------|----|
D|---------------------------------------------------------------|    
A|---------------------------------------------------------------|    
E|---------------------------------------------------------------|   

*Guitar 1*                                                       
e|---------------------------------------------------------------|
B|---------------------------------------------------------------|
G|-4-4---7-7---6-6---3-3-----4---3-----7---7---------------------|----|
D|-3-3---6-6---5-5---2-2-----3---2-------------------------------|    |
A|-2-2---5-5---4-4---1-1-----2---1-------------------------------|    |
E|-----x-----x-----x-----x-x---x---x-x---------------------------|    |
                                                                      |
1:23 (Guitar 2)                                                       |
e|-17-17-17-18-17-17-18-17-17-18-17-17---------------------------|    |
B|--x--x--x--x--x--x--x--x--x--x--x--x---etc.--------------------|    |
G|-15-15-15-16-15-15-16-15-15-16-15-15---------------------------|----|
D|---------------------------------------------------------------|
A|---------------------------------------------------------------|
E|---------------------------------------------------------------|

JAZZ PART (I always picture them on a beach in hawaiian shirts during this part)

*These are the first two chords of the jazz part.

e|-------7--------10-10-10-------|                   
B|-------5--------8--------8-----|                   
G|-------5--------9----------7---|                   
D|-------5---------------------6-|                   
A|-0-----------------------------|                   
E|-------------------------------|                   

e|---------------------------------------------------------------|
B|---------------------------------------------------------------|
G|---------------------------------------------------------------|X8
D|---------------------------------------------------------------|
A|---------------------------5---5-------------------------------|
E|-5-5-5-8-5-5-5-7-7-7-5-7-8---7---------------------------------|
PM-------------------------- + - +

e|------------------------------------|
B|------------------------------------|
G|------------------------------------|X4
D|-2-2-2---2-2-2-4-4-4-------2---2----|
A|-0-0-0-3-0-0-0-2-2-2-0-2-3---2------|
E|------------------------------------|

e|----------------------------------------------------------------|    
B|-3-3-3-3-3-3-3-3------------------------------------------------|    
G|-0-0-0-0-0-0-0-0------------------------------------------------|X2
D|-x-x-x-x-x-x-x-x-2-2-2-2-2-2-2-2-7-7-7-7-7-7-7-7-5-5-5-5-5-5-5-5|    
A|-3-3-3-3-3-3-3-3-2-2-2-2-2-2-2-2-7-7-7-7-7-7-7-7-5-5-5-5-5-5-5-5|   
E|-1-1-1-1-1-1-1-1-0-0-0-0-0-0-0-0-5-5-5-5-5-5-5-5-3-3-3-3-3-3-3-3|

e|---------------------------------------------------------------|
B|---------------------------------------------------------------|
G|-4-4---7-7---6-6---3-3-----4---7---7---------------------------|----|
D|-3-3---6-6---5-5---2-2-----3---6---6---------------------------|    |
A|-2-2---5-5---4-4---1-1-----2---5---5---------------------------|    |
E|-----x-----x-----x-----x-x---x---x-----------------------------|    |
                                                                      | 
1:23 (Guitar 2)                                                       |
e|-17-17-17-18-17-17-18-17-17-18-17-17---------------------------|    |
B|--x--x--x--x--x--x--x--x--x--x--x--x---etc.--------------------|    |
G|-15-15-15-16-15-15-16-15-15-16-15-15---------------------------|----|
D|---------------------------------------------------------------|    
A|---------------------------------------------------------------|    
E|---------------------------------------------------------------|   

*Guitar 1*                                                       
e|---------------------------------------------------------------|
B|---------------------------------------------------------------|
G|-4-4---7-7---6-6---3-3-----4---3-----7---7---------------------|----|
D|-3-3---6-6---5-5---2-2-----3---2-------------------------------|    |
A|-2-2---5-5---4-4---1-1-----2---1-------------------------------|    |
E|-----x-----x-----x-----x-x---x---x-x---------------------------|    |
                                                                      |
1:23 (Guitar 2)                                                       |
e|-17-17-17-18-17-17-18-17-17-18-17-17---------------------------|    |
B|--x--x--x--x--x--x--x--x--x--x--x--x---etc.--------------------|    |
G|-15-15-15-16-15-15-16-15-15-16-15-15---------------------------|----|
D|---------------------------------------------------------------|
A|---------------------------------------------------------------|
E|---------------------------------------------------------------|


| / slide up
| \ slide down
| h hammer-on
| p pull-off
| ~ vibrato
| + harmonic
| x Mute note

            
            
Suggest correction
Creating personal tab
Creating personal tab
You can edit any tab online and save it as your Personal.

You can edit, replace or remove any tab part or add personal notes – all changes will be seen only by you.

Personal tabs can be accessed anytime from any device, even offline.
Learn more »
comments
print report bad tab
8 comments total. Showing first comments.
0 reply
Kurt Russell 95 Jan 07, 2005 07:00 PM

I made several careless mistakes on this tab. I will post a correction soon.

0 reply
INDUSTRIALMETAL 20 Jan 20, 2005 07:00 PM

I notied several mistakes like you said but it is a pretty good tab still. 4****

0 reply
Kurt Russell 95 Jan 22, 2005 07:00 PM

Here is my corrected version

Tabbed by: Nate Messina
Email: Kurt_Russe1@yahoo.com

Tuning:EADGBE


Bars linked together like this mean they are played at the same time by different guitars:
----|
|
|
|
|
|
|
----|


Guitar 1 (Distortion)
0:00 "First off, let me say....
e|----------------------------------|
B|----------------------------------|
G|----------------------------------|----|
D|---------------------------2---2--| |
A|-0-0-0-3-0-0-0-2-2-2-0-2-3---2----| |
E|----------------------------------| |
pm-------------------------- - |
|
Guitar 2 (clean) |
e|-5--5-4--5-5-5--5--5---4-5-4------| |
B|----------------------------------| |
G|----------------------------------|----|
D|----------------------------------|
A|----------------------------------|
E|----------------------------------|

Guitar 1
0:03
e|----------------------------------|
B|----------------------------------|
G|----------------------------------|----|
D|---------------------------2---2--| |
A|-0-0-0-3-0-0-0-2-2-2-0-2-3---2----| |
E|----------------------------------| |
pm-------------------------- - |
|
Guitar 2 |
e|-4--5-4--4-4-4--4--4---5-4-5-4----| |
B|----------------------------------| |
G|----------------------------------|----|
D|----------------------------------|
A|----------------------------------|
E|----------------------------------|

Guitar 1
0:06
e|----------------------------------|
B|----------------------------------|
G|----------------------------------|----|
D|---------------------------2---2--| |
A|-0-0-0-3-0-0-0-2-2-2-0-2-3---2----| |
E|----------------------------------| |
pm-------------------------- - |
|
Guitar 2 |
e|-1--1-1--1-0-1--1--1---0-1-0-1----| |
B|----------------------------------| |
G|----------------------------------|----|
D|----------------------------------|
A|----------------------------------|
E|----------------------------------|

Guitar 1
0:09
e|----------------------------------|
B|----------------------------------|
G|----------------------------------|----|
D|---------------------------2---2--| |
A|-0-0-0-3-0-0-0-2-2-2-0-2-3---2----| |
E|----------------------------------| |
pm-------------------------- - |
|
Guitar 2 (Distortion) |
e|-1--1-1--1-0-1--1--1--------------| |
B|----------------------------------| |
G|-----------------------5-7br-5----|----|
D|-------------------------------7--|
A|----------------------------------|
E|----------------------------------|

Guitar 1
0:11 "Empty ambition..."
e|----------------------------------|
B|----------------------------------|
G|----------------------------------|----|
D|---------------------------2---2--| |
A|-0-0-0-3-0-0-0-2-2-2-0-2-3---2----| |
E|----------------------------------| |
pm-------------------------- - |
|
Guitar 2 (clean) |
e|-5--5--5--7---| |
B|--------------| |
G|--------------|------------------------|
D|--------------|
A|--------------|
E|--------------|

Guitar 1
0:14
e|----------------------------------|
B|----------------------------------|
G|----------------------------------|----|
D|---------------------------2---2--| |
A|-0-0-0-3-0-0-0-2-2-2-0-2-3---2----| |
E|----------------------------------| |
pm-------------------------- - |
|
Guitar 2 |
e|-4--4--4--5---| |
B|--------------| |
G|--------------|------------------------|
D|--------------|
A|--------------|
E|--------------|

Guitar 1
0:17
e|----------------------------------|
B|----------------------------------|
G|----------------------------------|----|
D|---------------------------2---2--| |
A|-0-0-0-3-0-0-0-2-2-2-0-2-3---2----| |
E|----------------------------------| |
pm-------------------------- - |
|
Guitar 2 |
e|-1--1-1--1-0-1--1--1---0-1-0-1----| |
B|----------------------------------| |
G|----------------------------------|----|
D|----------------------------------|
A|----------------------------------|
E|----------------------------------|

Guitar 1
0:20
e|----------------------------------|
B|----------------------------------|
G|----------------------------------|----|
D|---------------------------2---2--| |
A|-0-0-0-3-0-0-0-2-2-2-0-2-3---2----| |
E|----------------------------------| |
pm-------------------------- - |
|
Guitar 2 |
e|-1--1-1--1-0-1--1--1---0-1-0------| |
B|----------------------------------| |
G|----------------------------------|----|
D|----------------------------------|
A|----------------------------------|
E|----------------------------------|


*Both guitars
0:20 "I'm thinkin' 'bout another world"
e|----------------------------------|
B|----------------------------------|
G|----------------------------------|
D|----------------------------------|
A|-0-0-0-3-0-0-0-2------------2-----|
E|----------------------------0/5\0-|

0:23 "Toniiiiiiight" (Both Guitars)
e|------------------------------------|
B|------------------------------------|
G|------------------------------------|X4
D|-2-2-2---2-2-2-4-4-4-------2---2----|
A|-0-0-0-3-0-0-0-2-2-2-0-2-3---2------|
E|------------------------------------|

0:34 "So drop the gown..." (Guitar 1)
e|----------------------------------|
B|----------------------------------|
G|----------------------------------|----|
D|-2-2-----------------------2---2--| |
A|-0-0-0-3-0-0-0-2-2-2-0-2-3---2----| |
E|----------------------------------| |
P.M. --------------------- - |
|
Guitar 2 (clean, phaser) |
e|-5--5-4--5-5-5--5--5---4-5-4------| |
B|----------------------------------| |
G|----------------------------------|----|
D|----------------------------------|
A|----------------------------------|
E|----------------------------------|

Guitar 1
0:37
e|----------------------------------|
B|----------------------------------|
G|----------------------------------|----|
D|---------------------------2---2--| |
A|-0-0-0-3-0-0-0-2-2-2-0-2-3---2----| |
E|----------------------------------| |
pm-------------------------- - |
|
Guitar 2 |
e|-4--5-4--4-4-4--4--4---5-4-5-4----| |
B|----------------------------------| |
G|----------------------------------|----|
D|----------------------------------|
A|----------------------------------|
E|----------------------------------|

Guitar 1
0:40 "and it breaks my heart"
e|----------------------------------|
B|----------------------------------|
G|----------------------------------|----|
D|---------------------------2---2--| |
A|-0-0-0-3-0-0-0-2-2-2-0-2-3---2----| |
E|----------------------------------| |
pm-------------------------- - |
|
Guitar 2 |
e|-1--1-1--1-0-1--1--1---0-1-0-1----| |
B|----------------------------------| |
G|----------------------------------|----|
D|----------------------------------|
A|----------------------------------|
E|----------------------------------|

Guitar 1
0:44
e|----------------------------------|
B|----------------------------------|
G|----------------------------------|----|
D|---------------------------2---2--| |
A|-0-0-0-3-0-0-0-2-2-2-0-2-3---2----| |
E|----------------------------------| |
pm-------------------------+ - |
|
Guitar 2 (Distortion) |
e|-1--1-1--1-0-1--------------------| |
B|----------------------------------| |
G|-----------------------5-7br-5----|----|
D|-------------------5-7---------7--|
A|----------------------------------|
E|----------------------------------|

Guitar 1
0:47 "Ride so high"
e|----------------------------------|
B|----------------------------------|
G|----------------------------------|----|
D|---------------------------2---2--| |
A|-0-0-0-3-0-0-0-2-2-2-0-2-3---2----| |
E|----------------------------------| |
pm-------------------------- - |
|
Guitar 2 (clean) |
e|-5--5--5--7---| |
B|--------------| |
G|--------------|------------------------|
D|--------------| |
A|--------------| |
E|--------------| |
|
A Third guitar plays this |
e|-5--5-5--5-5-5--------------------| |
B|-6--6-6--6-6-6--------------------| |
G|-7--7-7--7-7-7--------------------|----|
D|----------------------------------|
A|----------------------------------|
E|----------------------------------|

Guitar 1
0:50 "thinkin' 'bout another world"
e|----------------------------------|
B|----------------------------------|
G|----------------------------------|----|
D|---------------------------2---2--| |
A|-0-0-0-3-0-0-0-2-2-2-0-2-3---2----| |
E|----------------------------------| |
pm-------------------------- - |
|
Guitar 2 |
e|-4--4--4--5---| |
B|--------------| |
G|--------------|------------------------|
D|--------------| |
A|--------------| |
E|--------------| |
|
Guitar 3 |
e|-4--4-4--4-4-4--------------------| |
B|-5--5-5--5-5-5--------------------| |
G|-6--6-6--6-6-6--------------------|----|
D|----------------------------------|
A|----------------------------------|
E|----------------------------------|

Guitar 1
0:52 "And it feels so wrong"
e|----------------------------------|
B|----------------------------------|
G|----------------------------------|----|
D|---------------------------2---2--| |
A|-0-0-0-3-0-0-0-2-2-2-0-2-3---2----| |
E|----------------------------------| |
pm-------------------------- - |
|
Guitar 2 |
e|-1--1-1--1-0-1--1--1---0-1-0-1----| |
B|----------------------------------| |
G|----------------------------------|----|
D|----------------------------------| |
A|----------------------------------| |
E|----------------------------------| |
|
Guitar 3 |
e|-1--1-1--1-1-1--| |
B|-2--2-2--2-2-2--| |
G|-3--3-3--3-3-3--|----------------------|
D|----------------|
A|----------------|
E|----------------|

Guitar 1
0:54 "Like nothing we've ever"
e|----------------------------------|
B|----------------------------------|
G|----------------------------------|----|
D|---------------------------2---2--| |
A|-0-0-0-3-0-0-0-2-2-2-0-2-3---2----| |
E|----------------------------------| |
pm-------------------------- - |
|
Guitar 2 |
e|-1--1-1--1-0-1--1--1---0-1-0------| |
B|----------------------------------| |
G|----------------------------------|----|
D|----------------------------------| |
A|----------------------------------| |
E|----------------------------------| |
|
|
Guitar 3 |
e|-0--0-0--0-0-0--| |
B|-1--1-1--1-1-1--| |
G|-2--2-2--2-2-2--|----------------------|
D|----------------|
A|----------------|
E|----------------|

*Both Guitars
0:57 "...felt before..."
e|------------------------------------|
B|------------------------------------|
G|------------------------------------|X4------------------------------|
D|-2-2-2---2-2-2-4-4-4-------2---2----| |
A|-0-0-0-3-0-0-0-2-2-2-0-2-3---2------| |
E|------------------------------------| |
|
1:09 "Stranger's candyyyyy..." *Both Guitars* |
e|----------------------------------------------------------------| |
B|-3-3-3-3-3-3-3-3------------------------------------------------| |
G|-0-0-0-0-0-0-0-0------------------------------------------------|X2--|
D|-x-x-x-x-x-x-x-x-2-2-2-2-2-2-2-2-7-7-7-7-7-7-7-7-5-5-5-5-5-5-5-5| |
A|-3-3-3-3-3-3-3-3-2-2-2-2-2-2-2-2-7-7-7-7-7-7-7-7-5-5-5-5-5-5-5-5| |
E|-1-1-1-1-1-1-1-1-0-0-0-0-0-0-0-0-5-5-5-5-5-5-5-5-3-3-3-3-3-3-3-3| |
|
1:20 "Close your eyes..." |
e|---------------------------------------------------------------| |
B|---------------------------------------------------------------| |
G|---------------------------------------------------------------|-----|
D|---------------------------------------------------------------|
A|-3-3-----3-3-3-2---2-2---2-2-2-2-------------------------------|
E|-1-1-x-x-1-1-1-0-x-0-0-x-0-0-0-0-------------------------------|

1:23 (Guitar 1) "Tonight"
e|---------------------------------------------------------------|
B|---------------------------------------------------------------|
G|-4-4---7-7---6-6---3-3-----4---7---7---------------------------|----|
D|-3-3---6-6---5-5---2-2-----3---6---6---------------------------| |
A|-2-2---5-5---4-4---1-1-----2---5---5---------------------------| |
E|-----x-----x-----x-----x-x---x---x-----------------------------| |
|
1:23 (Guitar 2) |
e|-17-17-17-18-17-17-18-17-17-18-17-17---------------------------| |
B|--x--x--x--x--x--x--x--x--x--x--x--x---etc.--------------------| |
G|-15-15-15-16-15-15-16-15-15-16-15-15---------------------------|----|
D|---------------------------------------------------------------|
A|---------------------------------------------------------------|
E|---------------------------------------------------------------|

*Guitar 1*
e|---------------------------------------------------------------|
B|---------------------------------------------------------------|
G|-4-4---7-7---6-6---3-3-----4---3-----7---7---------------------|----|
D|-3-3---6-6---5-5---2-2-----3---2-------------------------------| |
A|-2-2---5-5---4-4---1-1-----2---1-------------------------------| |
E|-----x-----x-----x-----x-x---x---x-x---------------------------| |
|
1:23 (Guitar 2) |
e|-17-17-17-18-17-17-18-17-17-18-17-17---------------------------| |
B|--x--x--x--x--x--x--x--x--x--x--x--x---etc.--------------------| |
G|-15-15-15-16-15-15-16-15-15-16-15-15---------------------------|----|
D|---------------------------------------------------------------|
A|---------------------------------------------------------------|
E|---------------------------------------------------------------|

JAZZ PART (I always picture them on a beach in hawaiian shirts during this part)


e|-------7--------10-10-10-------|
B|-------5--------8--------8-----|
G|-------5--------9----------9---|
D|-------5---------------------8-|
A|-------------------------------|
E|-------------------------------|

e|-------3--------6--6--6--------|
B|-------1--------4--------4-----|
G|-------1--------5----------5-5-|
D|-----------------------------5-|
A|-------------------------------|
E|-------------------------------|


2:01 "Ohh baby gnaw me down to the bone"
e|---------------------------------------------------------------|
B|---------------------------------------------------------------|
G|---------------------------------------------------------------|X8
D|---------------------------------------------------------------|
A|---------------------------5---5-------------------------------|
E|-5-5-5-8-5-5-5-7-7-7-5-7-8---7---------------------------------|
PM-------------------------- + - +

2:24 "...Of my very last show"
e|------------------------------------|
B|------------------------------------|
G|------------------------------------|X4
D|-2-2-2---2-2-2-4-4-4-------2---2----|
A|-0-0-0-3-0-0-0-2-2-2-0-2-3---2------|
E|------------------------------------|

e|----------------------------------------------------------------|
B|-3-3-3-3-3-3-3-3------------------------------------------------|
G|-0-0-0-0-0-0-0-0------------------------------------------------|X2
D|-x-x-x-x-x-x-x-x-2-2-2-2-2-2-2-2-7-7-7-7-7-7-7-7-5-5-5-5-5-5-5-5|
A|-3-3-3-3-3-3-3-3-2-2-2-2-2-2-2-2-7-7-7-7-7-7-7-7-5-5-5-5-5-5-5-5|
E|-1-1-1-1-1-1-1-1-0-0-0-0-0-0-0-0-5-5-5-5-5-5-5-5-3-3-3-3-3-3-3-3|

Just play this part until the end; listen to the song to get the timing right.
e|---------------------------------------------------------------|
B|---------------------------------------------------------------|
G|-4-4---7-7---6-6---3-3-----4---7---7---------------------------|----|
D|-3-3---6-6---5-5---2-2-----3---6---6---------------------------| |
A|-2-2---5-5---4-4---1-1-----2---5---5---------------------------| |
E|-----x-----x-----x-----x-x---x---x-----------------------------| |
|
(Guitar 2) |
e|-17-17-17-18-17-17-18-17-17-18-17-17---------------------------| |
B|--x--x--x--x--x--x--x--x--x--x--x--x---etc.--------------------| |
G|-15-15-15-16-15-15-16-15-15-16-15-15---------------------------|----|
D|---------------------------------------------------------------|
A|---------------------------------------------------------------|
E|---------------------------------------------------------------|

*Guitar 1*
e|---------------------------------------------------------------|
B|---------------------------------------------------------------|
G|-4-4---7-7---6-6---3-3-----4---3-----7---7---------------------|----|
D|-3-3---6-6---5-5---2-2-----3---2-------------------------------| |
A|-2-2---5-5---4-4---1-1-----2---1-------------------------------| |
E|-----x-----x-----x-----x-x---x---x-x---------------------------| |
|
(Guitar 2) |
e|-17-17-17-18-17-17-18-17-17-18-17-17---------------------------| |
B|--x--x--x--x--x--x--x--x--x--x--x--x---etc.--------------------| |
G|-15-15-15-16-15-15-16-15-15-16-15-15---------------------------|----|
D|---------------------------------------------------------------|
A|---------------------------------------------------------------|
E|---------------------------------------------------------------|


| / slide up
| \ slide down
| h hammer-on
| p pull-off
| ~ vibrato
| + harmonic
| x Mute note

guest
You may want to rate the tab now too:
select rating
Wanna post a correction for this tab? Suggest correction