Oops, an error
Loading. Please wait.

Symptom Of Terminal Illness Tab

154 views 24 this week
no commentswrite comment
1 2 3 4 5
2 more votes to show rating
add to favorites
launch autoscroll
font size
0
reset
how to read this tab
guitar tuner
Autoscroll
slow
fast
+/-
esc
set tempo
stop
Help us to improve Ultimate-Guitar.com Take our survey!
×
Author
Difficulty
intermediate
About this tab version
Includes main guitars, string intro and marked time signature changes. Was this info helpful? Yes No
The Dillinger Escape Plan
"Symptom of Terminal Illness"


[Intro]
  Strings (Keyboard)
e|----------------|----------------|----------------|----------------|
B|----------------|----------------|----------------|----------------|
G|4---------------|5---------------|4---------------|----------------|
D|----------------|----------------|----------------|7---------------|
A|5---------------|5---------------|5---------------|5---------------|
E|----------------|----------------|----------------|----------------|


  5/4 G1(Left)                             6/4                                 > > > >
e|----------------------------------------|------------------------------------------------|
B|----------------------------------------|------------------------------------------------| Accents alternate
G|----------------------------------------|------------4-----------------------9-9-9-9-----| on every other 
D|--------8---9---8-------------8---------|--------5-------5-------5-------5---9-9-9-9-----| repeat
A|7---7---------------7---7---7-----7-7---|7---7---------------7-------7-------7-7-7-7-----|
E|----------------------------------------|------------------------------------------------|
 |G2(Right Guitar w/ delay)                                                    > > > >       X6
e|----------------------------------------|------------------------------------------------|
B|------------8---------------------------|------------8-----------------------------------|
G|--------11------11-----------11---------|--------11------11--------------11--9-9-9-9-----|
D|----9---------------9-------9-----9-----|----9---------------9-------9-------9-9-9-9-----|
A|7-----------------------7-----------7---|7-----------------------7-----------7-7-7-7-----|
E|----------------------------------------|------------------------------------------------|
                                                    Omit accents on 2nd, 4th and 6th repeat
5/4                                      6/4
e|----------------------------------------|----------------12--15--19~---------------------|
B|----------------------------------------|------------11----------------------------------|
G|----------------------------------------|--------9---------------------------------------|
D|--------8---9---8-------------8---------|----8-------------------------------------------|
A|7---7---------------7---7---7-----7-7---|7-----------------------------------------------|
E|----------------------------------------|------------------------------------------------|
 |
e|----------------------------------------|----------------12--15--19~---------------------|
B|------------8---------------------------|------------8-----------------------------------|
G|--------11------11-----------11---------|--------11--------------------------------------|
D|----9---------------9-------9-----9-----|----9-------------------------------------------|
A|7-----------------------7-----------7---|7-----------------------------------------------|
E|----------------------------------------|------------------------------------------------|


[Chorus]
  5/4                  6/4                      5/4                  6/4
e|--------------------|------------------------|--------------------|------------------------|
B|--------------------|------------------------|--------------------|------------------------|
G|9-9-9-9-9-9-9-9-9-9-|9-9-9-9-9-9-9-9-9-9-9-9-|8-8-8-8-8-8-8-8-8-8-|5-5-5-5-5-5-------------|
D|9-9-9-9-9-9-9-9-9-9-|9-9-9-9-9-9-9-9-9-9-9-9-|8-8-8-8-8-8-8-8-8-8-|5-5-5-5-5-5-6-6-6-6-6-6-|
A|7-7-7-7-7-7-7-7-7-7-|7-7-7-7-7-7-7-7-7-7-7-7-|6-6-6-6-6-6-6-6-6-6-|3-3-3-3-3-3-6-6-6-6-6-6-|
E|--------------------|------------------------|--------------------|------------4-4-4-4-4-4-|
 |
e|--------------------|------------------------|--------------------|------------------------|
B|--------------------|------------------------|--------------------|------------------------|
G|9-9-9-9-9-9-9-9-9-9-|9-9-9-9-9-9-9-9-9-9-9-9-|8-8-8-8-8-8-8-8-8-8-|5-5-5-5-5-5-------------|
D|9-9-9-9-9-9-9-9-9-9-|9-9-9-9-9-9-9-9-9-9-9-9-|8-8-8-8-8-8-8-8-8-8-|5-5-5-5-5-5-6-6-6-6-6-6-|
A|7-7-7-7-7-7-7-7-7-7-|7-7-7-7-7-7-7-7-7-7-7-7-|6-6-6-6-6-6-6-6-6-6-|3-3-3-3-3-3-6-6-6-6-6-6-|
E|--------------------|------------------------|--------------------|------------4-4-4-4-4-4-|

  5/4                  6/4                      5/4                  6/4
e|--------------------|------------------------|--------------------|------------------------|
B|--------------------|------------------------|--------------------|------------------------|
G|9-9-9-9-9-9-9-9-9-9-|9-9-9-9-9-9-9-9-9-9-9-9-|8-8-8-8-8-8-8-8-8-8-|5---5---5---------------|
D|9-9-9-9-9-9-9-9-9-9-|9-9-9-9-9-9-9-9-9-9-9-9-|8-8-8-8-8-8-8-8-8-8-|5---5---5---6---6---6---|
A|7-7-7-7-7-7-7-7-7-7-|7-7-7-7-7-7-7-7-7-7-7-7-|6-6-6-6-6-6-6-6-6-6-|3---3---3---6---6---6---|
E|--------------------|------------------------|--------------------|------------4---4---4---|
 |
e|--------------------|------------------------|--------------------|------------------------|
B|--------------------|9-9-9-9-9-9-8-8-8-8-8-8-|8-8-8-8-8-8-8-8-8-8-|------------------------|
G|9-9-9-9-9-9-9-9-9-9-|x-x-x-x-x-x-x-x-x-x-x-x-|x-x-x-x-x-x-x-x-x-x-|5---5---5---------------|
D|9-9-9-9-9-9-9-9-9-9-|6-6-6-6-6-6-5-5-5-5-5-5-|5-5-5-5-5-5-5-5-5-5-|5---5---5---6---6---6---|
A|7-7-7-7-7-7-7-7-7-7-|------------------------|--------------------|3---3---3---6---6---6---|
E|--------------------|------------------------|--------------------|------------4---4---4---|


e|------------------------|------------------------|
B|------------------------|------------------------|
G|------------------------|------------------------|
D|5-5-5-5-5-5-5-5-5-5-5-5-|4-4-4-4-4-4-4-4-4-4-4-4-|
A|5-5-5-5-5-5-5-5-5-5-5-5-|4-4-4-4-4-4-4-4-4-4-4-4-|
E|3-3-3-3-3-3-3-3-3-3-3-3-|2-2-2-2-2-2-2-2-2-2-2-2-|
 |
e|------------------------|------------------------|
B|------------------------|------------------------|
G|------3-----------3-----|------3---3b4r3b4r3b4r3-|
D|----5---5-------5---5---|----4---4---------------|
A|--5-------5---5-------5-|--4---------------------|
E|3-----------3-----------|2-----------------------|


[Verse]
  5/4                                      6/4                                 > > > >
e|----------------------------------------|------------------------------------------------|
B|----------------------------------------|------------------------------------------------| Omit accents
G|----------------------------------------|------------4-----------------------9-9-9-9-----| on repeat
D|--------8---9---8-------------8---------|--------5-------5-------5-------5---9-9-9-9-----|
A|7---7---------------7---7---7-----7-7---|7---7---------------7-------7-------7-7-7-7-----|
E|----------------------------------------|------------------------------------------------|
 |                                                                             > > > >       X2
e|----------------------------------------|------------------------------------------------|
B|------------8---------------------------|------------8-----------------------------------|
G|--------11------11-----------11---------|--------11------11--------------11--9-9-9-9-----|
D|----9---------------9-------9-----9-----|----9---------------9-------9-------9-9-9-9-----|
A|7-----------------------7-----------7---|7-----------------------7-----------7-7-7-7-----|
E|----------------------------------------|------------------------------------------------|

  5/4                                     6/4 PM   PM      PM      PM          > > > >
e|----------------------------------------|------------------------------------------------|
B|----------------------------------------|------------------------------------------------|
G|----------------------------------------|9-------9-------9-------9-----------9-9-9-9-----|
D|--------8---9---8-------------8---------|9-------9-------9-------9-----------9-9-9-9-----|
A|7---7---------------7---7---7-----7-7---|7-------7-------7-------7-----------7-7-7-7-----|
E|----------------------------------------|------------------------------------------------|
 |                                         PM      PM      PM      PM          > > > >
e|----------------------------------------|------------------------------------------------|
B|------------8---------------------------|------------------------------------------------|
G|--------11------11-----------11---------|9-------9-------9-------9-----------9-9-9-9-----|
D|----9---------------9-------9-----9-----|9-------9-------9-------9-----------9-9-9-9-----|
A|7-----------------------7-----------7---|7-------7-------7-------7-----------7-7-7-7-----|
E|----------------------------------------|------------------------------------------------|

  5/4                                      6/4
e|----------------------------------------|------------------------------------------------|
B|----------------------------------------|----11------------------------------------------|
G|----------------------------------------|--------9---------------9---9---9---9---9---9---|
D|--------8---9---8-------------8---------|------------8-----------9---9---9---9---9---9---|
A|7---7---------------7---7---7-----7-7---|7---------------7-------7---7---7---7---7---7---|
E|----------------------------------------|------------------------------------------------|
 |                                                                  Strike near 7th fret
e|----------------------------------------|------------------------------------------------|
B|------------8---------------------------|----8-------------------x---x---x---x---x---x---|
G|--------11------11-----------11---------|--------11--------------x---x---x---x---x---x---|
D|----9---------------9-------9-----9-----|------------9-----------x---x---x---x---x---x---|
A|7-----------------------7-----------7---|7---------------7-------x---x---x---x---x---x---|
E|----------------------------------------|------------------------------------------------|


[Chorus]
  5/4                  6/4                      5/4                  6/4
e|--------------------|------------------------|--------------------|------------------------|
B|--------------------|------------------------|--------------------|------------------------|
G|9-9-9-9-9-9-9-9-9-9-|9-9-9-9-9-9-9-9-9-9-9-9-|8-8-8-8-8-8-8-8-8-8-|5-5-5-5-5-5-------------|
D|9-9-9-9-9-9-9-9-9-9-|9-9-9-9-9-9-9-9-9-9-9-9-|8-8-8-8-8-8-8-8-8-8-|5-5-5-5-5-5-6-6-6-6-6-6-|
A|7-7-7-7-7-7-7-7-7-7-|7-7-7-7-7-7-7-7-7-7-7-7-|6-6-6-6-6-6-6-6-6-6-|3-3-3-3-3-3-6-6-6-6-6-6-|
E|--------------------|------------------------|--------------------|------------4-4-4-4-4-4-|
 |
e|--------------------|------------------------|--------------------|------------------------|
B|--------------------|------------------------|--------------------|------------------------|
G|9-9-9-9-9-9-9-9-9-9-|9-9-9-9-9-9-9-9-9-9-9-9-|8-8-8-8-8-8-8-8-8-8-|5-5-5-5-5-5-------------|
D|9-9-9-9-9-9-9-9-9-9-|9-9-9-9-9-9-9-9-9-9-9-9-|8-8-8-8-8-8-8-8-8-8-|5-5-5-5-5-5-6-6-6-6-6-6-|
A|7-7-7-7-7-7-7-7-7-7-|7-7-7-7-7-7-7-7-7-7-7-7-|6-6-6-6-6-6-6-6-6-6-|3-3-3-3-3-3-6-6-6-6-6-6-|
E|--------------------|------------------------|--------------------|------------4-4-4-4-4-4-|

  5/4                  6/4                      5/4                  6/4
e|--------------------|------------------------|--------------------|------------------------|
B|--------------------|------------------------|--------------------|------------------------|
G|9-9-9-9-9-9-9-9-9-9-|9-9-9-9-9-9-9-9-9-9-9-9-|8-8-8-8-8-8-8-8-8-8-|5---5---5---------------|
D|9-9-9-9-9-9-9-9-9-9-|9-9-9-9-9-9-9-9-9-9-9-9-|8-8-8-8-8-8-8-8-8-8-|5---5---5---6---6---6---|
A|7-7-7-7-7-7-7-7-7-7-|7-7-7-7-7-7-7-7-7-7-7-7-|6-6-6-6-6-6-6-6-6-6-|3---3---3---6---6---6---|
E|--------------------|------------------------|--------------------|------------4---4---4---|
 |
e|--------------------|------------------------|--------------------|------------------------|
B|--------------------|9-9-9-9-9-9-8-8-8-8-8-8-|8-8-8-8-8-8-8-8-8-8-|------------------------|
G|9-9-9-9-9-9-9-9-9-9-|x-x-x-x-x-x-x-x-x-x-x-x-|x-x-x-x-x-x-x-x-x-x-|5---5---5---------------|
D|9-9-9-9-9-9-9-9-9-9-|6-6-6-6-6-6-5-5-5-5-5-5-|5-5-5-5-5-5-5-5-5-5-|5---5---5---6---6---6---|
A|7-7-7-7-7-7-7-7-7-7-|------------------------|--------------------|3---3---3---6---6---6---|
E|--------------------|------------------------|--------------------|------------4---4---4---|


e|------------------------|------------------------|
B|------------------------|------------------------|
G|------------------------|------------------------|
D|5-5-5-5-5-5-5-5-5-5-5-5-|4-4-4-4-4-4-4-4-4-4-4-4-|
A|5-5-5-5-5-5-5-5-5-5-5-5-|4-4-4-4-4-4-4-4-4-4-4-4-|
E|3-3-3-3-3-3-3-3-3-3-3-3-|2-2-2-2-2-2-2-2-2-2-2-2-|
 |
e|------------------------|------------------------|
B|------------------------|------------------------|
G|------3-----------3-----|------3---3b4r3b4r3b4r3-|
D|----5---5-------5---5---|----4---4---------------|
A|--5-------5---5-------5-|--4---------------------|
E|3-----------3-----------|2-----------------------|


[Bridge]
  7/4
e|----------------------------|----------------------------|
B|----------------------------|----------------------------|
G|----------------------------|----------------------------|
D|------8-8---------8-8-----8-|------8-8---------8-8-----8-|
A|------7-7---------7-7-----7-|------7-7---------7-7-----7-|
E|----------------------------|----------------------------|
 |
e|----------------------------|----------------------------|
B|8-8-8-7-7-7-5---------------|----8-8-8-7-7-7-8-----------|
G|--------------7---5-----4---|4-5-----------------------4-|
D|----------------------------|------------------------7---|
A|----------------------------|----------------------------|
E|----------------------------|----------------------------|

                                                             X4
e|----------------------------|----------------------------|
B|----------------------------|----------------------------|
G|----------------------------|----------------------------|
D|------8-8---------8-8-----8-|------8-8---------8-8-----8-|
A|------7-7---------7-7-----7-|------7-7---------7-7-----7-|
E|----------------------------|----------------------------|
 |
e|----------------------------|----------------------------|
B|5-5-5-6-6-6-----------------|----------------------------|
G|------------7-7-7-5-5-5-4-5-|8-8-8-7-7-7-5-5-5-4-4-4-----|
D|----------------------------|------------------------7-7-|
A|----------------------------|----------------------------|
E|----------------------------|----------------------------|


  6/4                                                                        5/4
e|------------------------|------------------------|------------------------|--------------------|
B|------8-----------8-----|------8-----------------|------------------------|------------------x-|
G|----11--11------11--11--|----11--11--------------|9-----------------------|------------------x-|
D|------------------------|------------------------|9-----------------------|------------------x-|
A|------------------------|------------------------|7-----------------------|------------------x-|
E|------------------------|------------------------|------------------------|--------------------|
 |
e|------------------------|------------------------|------------------------|--------------------|
B|------------------------|------------------------|------------------------|------------------x-|
G|------3-----------3-----|------3---3b4r3b4r3b4r3-|------------------------|------------------x-|
D|----5---5-------5---5---|----4---4---------------|------------------------|------------------x-|
A|--5-------5---5-------5-|--4---------------------|2-----------------------|------------------x-|
E|3-----------3-----------|2-----------------------|0-----------------------|--------------------|


[Chorus]
  5/4                  6/4                      5/4                  6/4
e|--------------------|------------------------|--------------------|------------------------|
B|--------------------|------------------------|--------------------|------------------------|
G|9-9-9-9-9-9-9-9-9-9-|9-9-9-9-9-9-9-9-9-9-9-9-|8-8-8-8-8-8-8-8-8-8-|5-5-5-5-5-5-------------|
D|9-9-9-9-9-9-9-9-9-9-|9-9-9-9-9-9-9-9-9-9-9-9-|8-8-8-8-8-8-8-8-8-8-|5-5-5-5-5-5-6-6-6-6-6-6-|
A|7-7-7-7-7-7-7-7-7-7-|7-7-7-7-7-7-7-7-7-7-7-7-|6-6-6-6-6-6-6-6-6-6-|3-3-3-3-3-3-6-6-6-6-6-6-|
E|--------------------|------------------------|--------------------|------------4-4-4-4-4-4-|
 |
e|--------------------|------------------------|--------------------|------------------------|
B|--------------------|------------------------|--------------------|------------------------|
G|9-9-9-9-9-9-9-9-9-9-|9-9-9-9-9-9-9-9-9-9-9-9-|8-8-8-8-8-8-8-8-8-8-|5-5-5-5-5-5-------------|
D|9-9-9-9-9-9-9-9-9-9-|9-9-9-9-9-9-9-9-9-9-9-9-|8-8-8-8-8-8-8-8-8-8-|5-5-5-5-5-5-6-6-6-6-6-6-|
A|7-7-7-7-7-7-7-7-7-7-|7-7-7-7-7-7-7-7-7-7-7-7-|6-6-6-6-6-6-6-6-6-6-|3-3-3-3-3-3-6-6-6-6-6-6-|
E|--------------------|------------------------|--------------------|------------4-4-4-4-4-4-|

  5/4                  6/4                      5/4                  6/4                 
     X2
e|--------------------|------------------------|--------------------|------------------------|
B|--------------------|------------------------|--------------------|------------------------|
G|9-9-9-9-9-9-9-9-9-9-|9-9-9-9-9-9-9-9-9-9-9-9-|8-8-8-8-8-8-8-8-8-8-|5---5---5---------------|
D|9-9-9-9-9-9-9-9-9-9-|9-9-9-9-9-9-9-9-9-9-9-9-|8-8-8-8-8-8-8-8-8-8-|5---5---5---6---6---6---|
A|7-7-7-7-7-7-7-7-7-7-|7-7-7-7-7-7-7-7-7-7-7-7-|6-6-6-6-6-6-6-6-6-6-|3---3---3---6---6---6---|
E|--------------------|------------------------|--------------------|------------4---4---4---|
 |
e|--------------------|------------------------|--------------------|------------------------|
B|--------------------|9-9-9-9-9-9-8-8-8-8-8-8-|8-8-8-8-8-8-8-8-8-8-|------------------------|
G|9-9-9-9-9-9-9-9-9-9-|x-x-x-x-x-x-x-x-x-x-x-x-|x-x-x-x-x-x-x-x-x-x-|5---5---5---------------|
D|9-9-9-9-9-9-9-9-9-9-|6-6-6-6-6-6-5-5-5-5-5-5-|5-5-5-5-5-5-5-5-5-5-|5---5---5---6---6---6---|
A|7-7-7-7-7-7-7-7-7-7-|------------------------|--------------------|3---3---3---6---6---6---|
E|--------------------|------------------------|--------------------|------------4---4---4---|

************************************

| x   Dead note
| >   Accented note
| b   Bend
| r   Release
| ~   Vibrato
| PM  Palm mute

************************************
Suggest correction
Give kudos to tab author, rate the tab!
1 2 3 4 5
comments
print report bad tab
guest
You may want to rate the tab now too:
select rating
Wanna post a correction for this tab? Suggest correction