Oops, an error
Loading. Please wait.

Weekend Sex Change Tab

version 2
version 2

Whole song

  • Full guitar tab for one of Dillinger's easiest songs.

Interactive

31 views 1 this week
no commentswrite comment
1 2 3 4 5
3 more votes to show rating
add to favorites
launch autoscroll
font size
0
reset
how to read this tab
guitar tuner
Autoscroll
slow
fast
+/-
esc
set tempo
stop
Help us to improve Ultimate-Guitar.com Take our survey!
×
Author
Difficulty
novice
About this tab version
Full guitar tab for one of Dillinger's easiest songs. Was this info helpful? Yes No
Artist: The Dillinger Escape Plan
Album: Calculating Infinity
Song: Weekend Sex Change

This song is in 4/4.  The rhythm for the majority of the song is fairly obvious so only the note durations
for the final section of the song are included.

[Part A - 0:00 to 0:22]

Let ring throughout

e|---------3-------|-----------------|---------3-------|-----------------|
B|-------1---1-----|-----------------|-------1---1-----|-----------------|
G|-----4-------4---|-----------------|-----4-------4---|-----------------|
D|---2-------------|-----------------|---2-------------|-----------------| x2
A|-----------------|-----------------|-0-------------0-|-----------------|
E|-0---------------|-----------------|-----------------|-----------------|

e|---------3-------|-----------------|---------3-------|-----------------|---------3-------|
B|-------1---1-----|-----------------|-------1---1-----|-----------------|-------1---1-----|
G|-----4-------4---|-----------------|-----4-------4---|-----------------|-----4-------4---|
D|---2-------------|-----------------|---2-------------|-----------------|---2-------------|
A|-----------------|-----------------|-0-------------0-|-----------------|-----------------|
E|-0-------------0-|-----------------|-----------------|-----------------|-0-------------0-|


[Part B - 0:22 to 2:29]

No guitar parts in this section.


[Part C - 2:29 to 3:00]

Let ring throughout

e|---------3-------|-----------------|---------3-------|-----------------|
B|-------1---1-----|-----------------|-------1---1-----|-----------------|
G|-----4-------4---|-----------------|-----4-------4---|-----------------|
D|---2-------------|-----------------|---2-------------|-----------------| x6
A|-----------------|-----------------|-0-------------0-|-----------------|
E|-0-------------0-|-----------------|-----------------|-----------------|


[Part D - 3:00 to 3:10]

   E Q.    H         H.          E E   H       H         W
e|-3---------------|-------------3---|-4-------1-------|-----------------|
B|-1---------------|-------------1---|-1-------1-------|-----------------|
G|-4---------------|-------------4---|-4-------4-------|-----------------|
D|-2---------------|-----------------|-----------------|-----------------|
A|-----------------|-----------------|-----------------|-----------------|
E|-----------------|-----------------|-----------------|-----------------|
                                               Let ring-----------------|

   E Q.    H         W                 H.          E E   W                 E Q.    H
e|-----------------|-----------------|-5-------------1-|-----------------|-3---------------|
B|-4---------------|-----------------|-6-------------2-|-----------------|-1---------------|
G|-0---------------|-----------------|-0-------------0-|-----------------|-4---------------|
D|-----------------|-----------------|-----------------|-----------------|-----------------|
A|-----------------|-----------------|-----------------|-----------------|-----------------|
E|-----------------|-----------------|-----------------|-----------------|-----------------|
                                       Let ring----| Let ring-----------|


************************************

| W   Whole note
| H.  Dotted half note
| H   Half note
| Q.  Dotted quarter note
| E   Eighth note

************************************
Suggest correction
Give kudos to tab author, rate the tab!
1 2 3 4 5
comments
print report bad tab
guest
You may want to rate the tab now too:
select rating
Wanna post a correction for this tab? Suggest correction