Oops, an error
Loading. Please wait.

Three Little Angels chords

version 1
version 1

Whole song

118 views 1 this week
2 commentsread comments
1 2 3 4 5
1 last vote to show rating
add to favorites
×
Save as Personal and add changes to this tab that will be seen only by you. Learn more ›
×
You can save this tab as Personal to edit and correct it or add notes. All changes will be seen only by you. Learn more »
launch autoscroll
font size
0
reset
transpose
0
reset
display chords
guitar tuner
edit
Autoscroll
slow
fast
+/-
esc
set tempo
stop
Strumming
There is no strumming pattern for this song yet. and get +5 IQ
------------------------------------------------------------------------------------------------------------
                                         Artist - The Dirty Guv'nahs
                                        *****************************
                                         Song - Three Little Angels
                                        ****************************
                                        Album - Hearts on Fire (2014)    
                                       *******************************
                                            Tabbed By - Ayreon77
                                           **********************
------------------------------------------------------------------------------------------------------------
Tuning = Standard



**************
CAPO 2nd FRET
**************


This is the picking pattern at the intro and outro.
  C              G         C             G  
e|--------------|---------|-------------|-------0-|
B|-----1--------|-------0-|-----1-------|---------|
G|-----0----0---|---0-----|-----0---0---|---0-----|
D|---2--------2-|-----0---|---2-------2-|-----0---|
A|-3------------|---------|-3-----------|---------|
E|-------0------|-3-------|-------0-----|-3-------|


-------------------------
CHORUS - Picking 
*******
Three little Angels
playing in the backyard tonight
mamas cryin on the sofa
With tears all in her eyes


-------------------------
VERSE 1
********
Em       G
She only thought
     C               G
That bad things ever happened
Em               G
People you don't meet
        C         D
And now she can't believe
    Em               G   C
His name's up in the headlines
           Em              G      D
That's his face up on the screen


-------------------------
BRIDGE
*******
C         G
  We need love
   Em              G
To keep us pushing forward
C          G         Em      D
  It's not enough to hold it in our hearts
C         G
  We need love
Em              D
Standing in our corner
    Em      G     
The hardest parts
D        G      Em
Oh there yet to come


-------------------------
01:10
SOLO - Em G
*****
e|--h--------h---h--------|--p-------------|----------------|-------|--h--------h---h--------|---------|
B|-3-5-5-5--3-5-3-5-5-5-5-|-5-3--s---------|--s---s---------|--p----|-3-5-5-5--3-5-3-5-5-5-3-|--p---s--|
G|------------------------|-----2\4--4-4-4-|-2\4-2\4--4-4-4-|-2-0-0-|------------------------|-4-2-2\4-|
D|------------------------|----------------|----------------|-------|------------------------|---------|
A|------------------------|----------------|----------------|-------|------------------------|---------|
E|------------------------|----------------|----------------|-------|------------------------|---------|


-------------------------
VERSE 2
********
Em                     G
She watched him suffer
       Em                       G
He was never like the others in town
             C              Em   G
She'd always hoped he would recover
        C                  Em   G
But the years they let him down 
        Em          G
Oh well You'd never know it

Cause every time you'd see his picture
Em          G
He's always smiling
    D                
But right behind his eyes
Em           G
Everything's uncertain
C       Em               G    D
   Yeah nothing's really fine tonight


-------------------------
BRIDGE
*******
C         G
  We need love
   Em              G
To keep us pushing forward
C          G         Em             D
  It's not enough to hold it in our hearts
C         G
  We need love
Em              D
Standing in our corner
    Em      G     
The hardest parts
D        G      Em
Oh there yet to come


-------------------------
02:21
SOLO - Em G
*****
e|--h--------h---h--------|--------------------|--------------|
B|-3-5-5-5--3-5-3-5-5-5-5-|--s---s-------------|--s-----------|
G|------------------------|-2\4-2\4--4-4-4-2-0-|-2\4--4-4-2-0-|
D|------------------------|--------------------|--------------|
A|------------------------|--------------------|--------------|
E|------------------------|--------------------|--------------|


e|--h--------h---h--------|---------------------------|
B|-3-5-5-5--3-5-3-5-5-5-5-|--s---s--3-----------------|
G|------------------------|-2\4-2\4---4-4-4-4-2-0---0-|
D|------------------------|-----------------------2---|
A|------------------------|---------------------------|
E|------------------------|---------------------------|


e|--h--------h---h--------|------------------------------------|
B|-3-5-5-5--3-5-3-5-5-5-5-|--s---s-----------s---s-------------|
G|------------------------|-2\4-2\4--4-4-4--2\4-2\4--4-4-4-2-0-|
D|------------------------|------------------------------------|
A|------------------------|------------------------------------|
E|------------------------|------------------------------------|


e|--h--------h---h--------|------------------------------------------------------|
B|-3-5-5-5--3-5-3-5-5-5-3-|--p---s-----------s---------s---------s---------------|
G|------------------------|-4-2-2\4-4-4-4-4-4\7-7-7-7-7\9-9-9-9-9\11-11-11-11-11-|
D|------------------------|------------------------------------------------------|
A|------------------------|------------------------------------------------------|
E|------------------------|------------------------------------------------------|


-------------------------
CHORUS - Picking 
*******
Three little angels
Are sleeping in the back room tonight
Praying with their mother
For a world that never dies

Sayin
C       G
We need love
C       G
We need love  mmmmm
C       G
We need love
    C       G
Oh, We need love



ENJOY........
Suggest correction
Creating personal tab
Creating personal tab
You can edit any tab online and save it as your Personal.

You can edit, replace or remove any tab part or add personal notes – all changes will be seen only by you.

Personal tabs can be accessed anytime from any device, even offline.
Learn more »
Give kudos to tab author, rate the tab!
1 2 3 4 5
comments
print report bad tab
2 comments total.
0 reply
Millcrest 67 May 08, 2016 08:27 AM

Thank you so much for posting this, it's really great! :)

0 reply
ayreon77 21,833 May 08, 2016 01:59 PM, edited at 09:36 pm

ok everything is in place better and i added the solos.

guest
You may want to rate the tab now too:
select rating
Wanna post a correction for this tab? Suggest correction