Oops, an error
Loading. Please wait.

Cinnamon Tab

136 views 27 this week
no commentswrite comment
1 2 3 4 5
3 more votes to show rating
add to favorites
launch autoscroll
font size
0
reset
how to read this tab
guitar tuner
Autoscroll
slow
fast
+/-
esc
set tempo
stop
Help us to improve Ultimate-Guitar.com Take our survey!
×
The Dirty Nil - Cinnamon

Tuning: **E flat**

Exact rhythms not tabbed out, can figure out by ear

Verse 1 (eighth notes)

eb|-----------------------------------|
Bb|-----------------------------------|
Gb|--------------------------7--------|     X2
Db|--10--------------3-------7--------|
Ab|--10--------------3-------5--------|
Eb|--8-------0-------1----------------|


Chorus 1

eb|-------------------------------------------------|
Bb|-------------------------------------------------|
Gb|--------------------------------------7----------|
Db|--5---5-5-----2---2-2-----3---3-3-----7----------|
Ab|--5---5-5-----2---2-2-----3---3-3-----5----------|
Eb|--3---3-3-----0---0-0-----1---1-1----------------|


Pause (acapella + bass)

Verse 2 (eighth notes)

eb|-----------------------------------|
Bb|-----------------------------------|
Gb|--------------------------7--------|     X2
Db|--10--------------3-------7--------|
Ab|--10--------------3-------5--------|
Eb|--8-------0-------1----------------|


Chorus 2

eb|-------------------------------------------------|-----------------------|-----------------------|
Bb|-------------------------------------------------|-----------------------|-----------------------|
Gb|--------------------------------------7----------|-------10--------------|-------10--------------|
Db|--5---5-5-----2---2-2-----3---3-3-----7----------|--10---10---10-----5---|--10---10---10-----5---|
Ab|--5---5-5-----2---2-2-----3---3-3-----5----------|--10---8----10-----5---|--10---8----10-----5---|
Eb|--3---3-3-----0---0-0-----1---1-1----------------|--8---------8------3---|--8---------8------3---|


Solo/Bridge

eb|---------------------------------------|--------------------------|
Bb|--------5------------5------------5----|--------------------------|
Gb|--------7b9----------7b9----------7b9--|--------------------------|
Db|--10-------------------------3---------|--10-12-12-10-12-14-12-10-|
Ab|--10-------------------------3---------|--10-12-12-10-12-14-12-10-|
Eb|--8-------------0------------1---------|--8--10-10-8--10-12-10-8--|

eb|-------------------------------------------|--------------------------|
Bb|--------5------------10-------------17-----|--------------------------|
Gb|--------7b9----------12b14----------19b21--|--------------------------|
Db|--10---------------------------3-----------|--10-12-12-10-12-14-12-10-|
Ab|--10---------------------------3-----------|--10-12-12-10-12-14-12-10-|
Eb|--8-------------0--------------1-----------|--8--10-10-8--10-12-10-8--|

e|-------------------------------------------|
B|--5---5-------------------11b12------------|
G|--7b9-7b9--7-5~---5-7-7-5-----------12-----|
D|------------------------------------12-----|
A|------------------------------------10-----|
E|-------------------------------------------|


Last chorus
                                                   staccato               hold
eb|-----------------------|-----------------------|--------------------------------|
Bb|-----------------------|-----------------------|--------------------------------|
Gb|-------10--------------|-------10--------------|--------------------------------|
Db|--10---10---10-----5---|--10---10---10-----5---|--10-10-10-10-3-3-3-3--10-------|
Ab|--10---8----10-----5---|--10---8----10-----5---|--10-10-10-10-3-3-3-3--10-------|
Eb|--8---------8------3---|--8---------8------3---|--8--8--8--8--1-1-1-1--8--------|

End



Tabbed by: Pestilent Decay
Suggest correction
Give kudos to tab author, rate the tab!
1 2 3 4 5
comments
print report bad tab
guest
You may want to rate the tab now too:
select rating
Wanna post a correction for this tab? Suggest correction