Oops, an error
Loading. Please wait.

Fight tab

version 2
version 2

Whole song

Interactive

235 views 1 this week
no commentswrite comment
1 2 3 4 5
3 more votes to show rating
add to favorites
×
Save as Personal and add changes to this tab that will be seen only by you. Learn more ›
×
You can save this tab as Personal to edit and correct it or add notes. All changes will be seen only by you. Learn more »
launch autoscroll
font size
0
reset
how to read this tab
guitar tuner
edit
Autoscroll
slow
fast
+/-
esc
set tempo
stop
Author
Difficulty
------------------------------------------------------------------------------- 
                             Fight - The Dirty Youth 
------------------------------------------------------------------------------- 
Tabbed by: stun64 
Have fun playing 
Tuning:EADGBe 
 
\ = slide down 
 
0:00-0:04 Intro 
guitar 1 
 
e -----------------|
B -----------------|
G -----------------|
D -6-6-------------|
A -6-6-------------|
E -4-4-------------|
                   |
Guitar 2           |  4 times.
                   |
e -----------------|
B -----------------|
G -----------------|
D -6-6-------------|
A -6-6-6-4---------|
E -4-4-----7-6-4---|
 
 
0:04-0:10 
guitar 1 
 
e -------------------------------------------------------------|
B -------------------------------------------------------------|
G -------------------------------------------------------------|
D -2-----------------------------------------------------------|
A -2-----------------------------------------------------------|
E -0-----------------------------------------------------------|
                                                               |
guitar 2                                                       |
                                                               |
e -------------------------------------------------------------|
B -------------------------------------------------------------|
G -------------------------------------------------------------|
D -------------------------------------------------------------|
A ---------------------------------------------6-7---6---------|
E -0-0-6-0-7-0-9-0-7-0-6-0-4-6-4-0-0-6-0-7-0-9-----7---7-6-----|
 
 
0:10-0:13 
guitar 1 
 
e -----------------|
B -----------------|
G -----------------|
D -6-6-------------|
A -6-6-------------|
E -4-4-------------|
                   |
Guitar 2           |  3 times.
                   |
e -----------------|
B -----------------|
G -----------------|
D -6-6-------------|
A -6-6-6-4---------|
E -4-4-----7-6-4---|
 
 
0:13-0:15 
guitar 1 
 
e -----------------|
B -----------------|
G -----4-4---------|
D -6-6-4-4---------|
A -6-6-2-2---------|
E -4-4-------------|
                   |
Guitar 2           |
                   |
e -----------------|
B -----------------|
G -----------------|
D -6-6-------------|
A -6-6-6-4---------|
E -4-4-----7-6-4---|
 
 
0:15-0:20 
guitar 1 
 
e -----------------------------------------------------------------|
B -----------------------------------------------------------------|
G -----------------------------------------------------------------|
D -2-2-----------2-2---------------2-2-----------------------------|
A -2-2-----------2-2---------------2-2-----------------------------|
E -0-0-----------0-0---------------0-0-----------------------------|
                                                                   |
guitar 2                                                           |
                                                                   |
e -----------------------------------------------------------------|
B -----------------------------------------------------------------|
G -----------------------------------------------------------------|
D -2-2-------------------------------------------------------------|
A -2-2-----------------------------------------------6-7---6-------|
E -0-0-6-0-7-0-9-0-0-7-0-6-0-4-6-4-0-0-0-6-0-7-0-0-9-----7---7-6---|
 
 
0:20-0:42 Verse 
Guitar 1 & 2 
 
e --------------------------------------------------------------------------------------------------|
B --------------------------------------------------------------------------------------------------|
G --------------------------------------------4-4---------------------------------------------------|
D -6-6----------6-6----------6-6----------6-6-4-4-2-2----------2-2----------2-2-----------2-2-5-5---| 2 times
A -6-6----------6-6----------6-6----------6-6-2-2-2-2----------2-2----------2-2-----------2-2-5-5---|
E -4-4----------4-4----------4-4----------4-4-----0-0----------0-0----------0-0-----------0-0-3-3---|
 
 
     |-----Palmmuted--------|
e -----------------------------|
B -----------------------------|
G -----------------------------|
D -6-6-6-6-6-6-6-6-6-6-6-6-6---|
A -6-6-6-6-6-6-6-6-6-6-6-6-6---|
E -4-4-4-4-4-4-4-4-4-4-4-4-4---|
 
 
0:42-1:02 Refrain 
Guitar 1 
 
e -------------14-14-------------------14-14-------------------14-14-------------------14-14------|
B -------12-12-------12-12-------12-12-------12-12-------12-12-------12-12-------12-12-------12-9-|
G -13-13-------------------13-13-------------------13-13-------------------13-13------------------|
D ------------------------------------------------------------------------------------------------|
A ------------------------------------------------------------------------------------------------|
E ------------------------------------------------------------------------------------------------|
                                                                                                  |
Guitar 2                                                                                          |
                                                                                                  |
e ------------------------------------------------------------------------------------------------|
B ------------------------------------------------------------------------------------------------|
G ------------------------------------------------------------------------------------------------|
D -6--6--------------------6--6--------------------6--6--------------------6--6-------------------|
A -6--6--6--4--------------6--6--6--4--------------6--6--6--4--------------6--6--6--4-------------|
E -4--4--------7--6--4-----4--4--------7--6--4-----4--4--------7--6--4-----4--4--------7--6--4----|
                                                                                                  |
Guitar 3                                                                                          |
                                                                                                  |
e ------------------------------------------------------------------------------------------------|
B ------------------------------------------------------------------------------------------------|
G -------------------------------------------------------------------------------4--4-------------|
D -6--6--------------------6--6--------------------6--6--------------------6--6--4--4-------------|
A -6--6--------------------6--6--------------------6--6--------------------6--6--2--2-------------|
E -4--4--------------------4--4--------------------4--4--------------------4--4-------------------|

Guitar 1 
 
e ---------------------------------------------------------------------------------|
B ---12-12-11-11-9-9-----12-12-11-11-9-9-----12-12-11-11-9-9-----12-12-11-11-9-9---|
G -9-----------------9-9-----------------9-9-----------------9-9-----------------9-|
D ---------------------------------------------------------------------------------|
A ---------------------------------------------------------------------------------|
E ---------------------------------------------------------------------------------|
                                                                                   |
Guitar 2                                                                           |
                                                                                   |
e ---------------------------------------------------------------------------------|
B ---------------------------------------------------------------------------------|
G ---------------------------------------------------------------------------------|
D ---------------------------------------------------------------------------------|
A ------------------------------------------------------------------6--7-----6-----|
E -0-0--6--0--7--0-9-0-0-7--0--6--0--4-6-4-0-0--0--6--0----7-0-0-9--------7----7-6-|
                                                                                   |
Guitar 3                                                                           |
                                                                                   |
e ---------------------------------------------------------------------------------|
B ---------------------------------------------------------------------------------|
G ---------------------------------------------------------------------------------|
D -2-2---------------2-2-------------------2-2-------------2-2-5-5-----------------|
A -2-2---------------2-2-------------------2-2-------------2-2-5-5-----------------|
E -0-0---------------0-0-------------------0-0-------------0-0-3-3-----------------|
 
Guitar 1 
 
e -------------14-14-------------------14-14-------------------14-14-------------------14-14------|
B -------12-12-------12-12-------12-12-------12-12-------12-12-------12-12-------12-12-------12-9-|
G -13-13-------------------13-13-------------------13-13-------------------13-13------------------|
D ------------------------------------------------------------------------------------------------|
A ------------------------------------------------------------------------------------------------|
E ------------------------------------------------------------------------------------------------|
                                                                                                  |
Guitar 2                                                                                          |
                                                                                                  |
e ------------------------------------------------------------------------------------------------|
B ------------------------------------------------------------------------------------------------|
G ------------------------------------------------------------------------------------------------|
D -6--6--------------------6--6--------------------6--6--------------------6--6-------------------|
A -6--6--6--4--------------6--6--6--4--------------6--6--6--4--------------6--6--6--4-------------|
E -4--4--------7--6--4-----4--4--------7--6--4-----4--4--------7--6--4-----4--4--------7--6--4----|
                                                                                                  |
Guitar 3                                                                                          |
                                                                                                  |
e ------------------------------------------------------------------------------------------------|
B ------------------------------------------------------------------------------------------------|
G -------------------------------------------------------------------------------4--4-------------|
D -6--6--------------------6--6--------------------6--6--------------------6--6--4--4-------------|
A -6--6--------------------6--6--------------------6--6--------------------6--6--2--2-------------|
E -4--4--------------------4--4--------------------4--4--------------------4--4-------------------|

Guitar 1 
 
e ---------------------------------------------------------------------------------|
B ---12-12-11-11-9-9-----12-12-11-11-9-9-----12-12-11-11-9-9-----12-12-11-11-9-9---|
G -9-----------------9-9-----------------9-9-----------------9-9-----------------9-|
D ---------------------------------------------------------------------------------|
A ---------------------------------------------------------------------------------|
E ---------------------------------------------------------------------------------|
                                                                                   |
Guitar 2                                                                           |
                                                                                   |
e ---------------------------------------------------------------------------------|
B ---------------------------------------------------------------------------------|
G ---------------------------------------------------------------------------------|
D ---------------------------------------------------------------------------------|
A ------------------------------------------------------------------6--7-----6-----|
E -0-0--6--0--7--0-9-0-0-7--0--6--0--4-6-4-0-0--0--6--0----7-0-0-9--------7----7-6-|
                                                                                   |
Guitar 3                                                                           |
                                                                                   |
e ---------------------------------------------------------------------------------|
B ---------------------------------------------------------------------------------|
G ---------------------------------------------------------------------------------|
D -2-2---------------2-2-------------------2-2-------------------------------------|
A -2-2---------------2-2-------------------2-2-------------------------------------|
E -0-0---------------0-0-------------------0-0-------------------------------------|


0:42-1:34 Verse 
Guitar 1 & 2 
 
e -------------------------------------------------------------------------------------------------|
B -------------------------------------------------------------------------------------------------|
G --------------------------------------------4-4--------------------------------------------------|
D -6-6----------6-6----------6-6----------6-6-4-4-2-2----------2-2----------2-2----------2-2-5-5---|  3 times
A -6-6----------6-6----------6-6----------6-6-2-2-2-2----------2-2----------2-2----------2-2-5-5---|
E -4-4----------4-4----------4-4----------4-4-----0-0----------0-0----------0-0----------0-0-3-3---|
 
 
     |-----Palmmuted--------|
e -----------------------------|
B -----------------------------|
G -----------------------------|
D -6-6-6-6-6-6-6-6-6-6-6-6-6---|
A -6-6-6-6-6-6-6-6-6-6-6-6-6---|
E -4-4-4-4-4-4-4-4-4-4-4-4-4---|
 
 
1:34-1:53 Refrain 
Guitar 1 
 
e -------------14-14-------------------14-14-------------------14-14-------------------14-14------|
B -------12-12-------12-12-------12-12-------12-12-------12-12-------12-12-------12-12-------12-9-|
G -13-13-------------------13-13-------------------13-13-------------------13-13------------------|
D ------------------------------------------------------------------------------------------------|
A ------------------------------------------------------------------------------------------------|
E ------------------------------------------------------------------------------------------------|
                                                                                                  |
Guitar 2                                                                                          |
                                                                                                  |
e ------------------------------------------------------------------------------------------------|
B ------------------------------------------------------------------------------------------------|
G ------------------------------------------------------------------------------------------------|
D -6--6--------------------6--6--------------------6--6--------------------6--6-------------------|
A -6--6--6--4--------------6--6--6--4--------------6--6--6--4--------------6--6--6--4-------------|
E -4--4--------7--6--4-----4--4--------7--6--4-----4--4--------7--6--4-----4--4--------7--6--4----|
                                                                                                  |
Guitar 3                                                                                          |
                                                                                                  |
e ------------------------------------------------------------------------------------------------|
B ------------------------------------------------------------------------------------------------|
G -------------------------------------------------------------------------------4--4-------------|
D -6--6--------------------6--6--------------------6--6--------------------6--6--4--4-------------|
A -6--6--------------------6--6--------------------6--6--------------------6--6--2--2-------------|
E -4--4--------------------4--4--------------------4--4--------------------4--4-------------------|

Guitar 1 
 
e ---------------------------------------------------------------------------------|
B ---12-12-11-11-9-9-----12-12-11-11-9-9-----12-12-11-11-9-9-----12-12-11-11-9-9---|
G -9-----------------9-9-----------------9-9-----------------9-9-----------------9-|
D ---------------------------------------------------------------------------------|
A ---------------------------------------------------------------------------------|
E ---------------------------------------------------------------------------------|
                                                                                   |
Guitar 2                                                                           |
                                                                                   |
e ---------------------------------------------------------------------------------|
B ---------------------------------------------------------------------------------|
G ---------------------------------------------------------------------------------|
D ---------------------------------------------------------------------------------|
A ------------------------------------------------------------------6--7-----6-----|
E -0-0--6--0--7--0-9-0-0-7--0--6--0--4-6-4-0-0--0--6--0----7-0-0-9--------7----7-6-|
                                                                                   |
Guitar 3                                                                           |
                                                                                   |
e ---------------------------------------------------------------------------------|
B ---------------------------------------------------------------------------------|
G ---------------------------------------------------------------------------------|
D -2-2---------------2-2-------------------2-2-------------2-2-5-5-----------------|
A -2-2---------------2-2-------------------2-2-------------2-2-5-5-----------------|
E -0-0---------------0-0-------------------0-0-------------0-0-3-3-----------------|
 
Guitar 1 
 
e -------------14-14-------------------14-14-------------------14-14-------------------14-14------|
B -------12-12-------12-12-------12-12-------12-12-------12-12-------12-12-------12-12-------12-9-|
G -13-13-------------------13-13-------------------13-13-------------------13-13------------------|
D ------------------------------------------------------------------------------------------------|
A ------------------------------------------------------------------------------------------------|
E ------------------------------------------------------------------------------------------------|
                                                                                                  |
Guitar 2                                                                                          |
                                                                                                  |
e ------------------------------------------------------------------------------------------------|
B ------------------------------------------------------------------------------------------------|
G ------------------------------------------------------------------------------------------------|
D -6--6--------------------6--6--------------------6--6--------------------6--6-------------------|
A -6--6--6--4--------------6--6--6--4--------------6--6--6--4--------------6--6--6--4-------------|
E -4--4--------7--6--4-----4--4--------7--6--4-----4--4--------7--6--4-----4--4--------7--6--4----|
                                                                                                  |
Guitar 3                                                                                          |
                                                                                                  |
e ------------------------------------------------------------------------------------------------|
B ------------------------------------------------------------------------------------------------|
G -------------------------------------------------------------------------------4--4-------------|
D -6--6--------------------6--6--------------------6--6--------------------6--6--4--4-------------|
A -6--6--------------------6--6--------------------6--6--------------------6--6--2--2-------------|
E -4--4--------------------4--4--------------------4--4--------------------4--4-------------------|

Guitar 1 
 
e ---------------------------------------------------------------------------------|
B ---12-12-11-11-9-9-----12-12-11-11-9-9-----12-12-11-11-9-9-----12-12-11-11-9-9---|
G -9-----------------9-9-----------------9-9-----------------9-9-----------------9-|
D ---------------------------------------------------------------------------------|
A ---------------------------------------------------------------------------------|
E ---------------------------------------------------------------------------------|
                                                                                   |
Guitar 2                                                                           |
                                                                                   |
e ---------------------------------------------------------------------------------|
B ---------------------------------------------------------------------------------|
G ---------------------------------------------------------------------------------|
D ---------------------------------------------------------------------------------|
A ------------------------------------------------------------------6--7-----6-----|
E -0-0--6--0--7--0-9-0-0-7--0--6--0--4-6-4-0-0--0--6--0----7-0-0-9--------7----7-6-|
                                                                                   |
Guitar 3                                                                           |
                                                                                   |
e ---------------------------------------------------------------------------------|
B ---------------------------------------------------------------------------------|
G ---------------------------------------------------------------------------------|
D -2-2---------------2-2-------------------2-2-------------------------------------|
A -2-2---------------2-2-------------------2-2-------------------------------------|
E -0-0---------------0-0-------------------0-0-------------------------------------|

1:58-2:09 
Guitar 1 & 2 
 
e -------------------------------------------------------|
B -------------------------------------------------------|
G --------------3---3--3-3-3-4---4--4-4-4-6---6--6-6-6---|
D -6---6--6-6-6-3---3--3-3-3-4---4--4-4-4-6---6--6-6-6---|  2 times
A -6---6--6-6-6-1---1--1-1-1-2---2--2-2-2-4---4--4-4-4---|
E -4---4--4-4-4------------------------------------------|
 
 
2:09-2:18
Guitar 1 & 2
  |--------------------------------------------------------Palmmuted-------------------------------
e -------------------------------------------------------------------------------------------------
B -------------------------------------------------------------------------------------------------
G -----------------3-3-3-3-3-3-3-3-4-4-4-4-4-4-4-4-6-6-6-6-6-6-6-6-8-8-8-8-8-8-8-8-9-9-9-9-9-9-9-9-
D -6-6-6-6-6-6-6-6-3-3-3-3-3-3-3-3-4-4-4-4-4-4-4-4-6-6-6-6-6-6-6-6-8-8-8-8-8-8-8-8-9-9-9-9-9-9-9-9-
A -6-6-6-6-6-6-6-6-1-1-1-1-1-1-1-1-2-2-2-2-2-2-2-2-4-4-4-4-4-4-4-4-6-6-6-6-6-6-6-6-7-7-7-7-7-7-7-7-
E -4-4-4-4-4-4-4-4---------------------------------------------------------------------------------

  -------------Palmmuted--------------------------|
  --------------------------------------------------|
  --------------------------------------------------|
  -12-12-12-12-12-12-12-12-13-13-13-13-13-13-13-13--|
  -12-12-12-12-12-12-12-12-13-13-13-13-13-13-13-13--|
  -10-10-10-10-10-10-10-10-11-11-11-11-11-11-11-11--|
  --------------------------------------------------|
 
 
2:18-2:38 Refrain(variation 1) 
Guitar 1 
 
e ------------------14-14-------------------14-14-------------------14-14-------------------14-14------|
B ------------12-12-------12-12-------12-12-------12-12-------12-12-------12-12-------12-12-------12-9-|
G ------13-13-------------------13-13-------------------13-13-------------------13-13------------------|
D -----------------------------------------------------------------------------------------------------|
A -----------------------------------------------------------------------------------------------------|
E -----------------------------------------------------------------------------------------------------|
                                                                                                       |
Guitar 2                                                                                               |
                                                                                                       |
e -----------------------------------------------------------------------------------------------------|
B -----------------------------------------------------------------------------------------------------|
G -----------------------------------------------------------------------------------------------------|
D (13)\-6--6--------------------6--6--------------------6--6--------------------6--6-------------------|
A (11)\-6--6--6--4--------------6--6--6--4--------------6--6--6--4--------------6--6--6--4-------------|
E ------4--4--------7--6--4-----4--4--------7--6--4-----4--4--------7--6--4-----4--4--------7--6--4----|
                                                                                                       |
Guitar 3                                                                                               |
                                                                                                       |
e -----------------------------------------------------------------------------------------------------|
B -----------------------------------------------------------------------------------------------------|
G ------------------------------------------------------------------------------------4--4-------------|
D ------6--6--------------------6--6--------------------6--6--------------------6--6--4--4-------------|
A ------6--6--------------------6--6--------------------6--6--------------------6--6--2--2-------------|
E ------4--4--------------------4--4--------------------4--4--------------------4--4-------------------|


Guitar 1 
 
e ---------------------------------------------------------------------------------|
B ---12-12-11-11-9-9-----12-12-11-11-9-9-----12-12-11-11-9-9-----12-12-11-11-9-9---|
G -9-----------------9-9-----------------9-9-----------------9-9-----------------9-|
D ---------------------------------------------------------------------------------|
A ---------------------------------------------------------------------------------|
E ---------------------------------------------------------------------------------|
                                                                                   |
Guitar 2                                                                           |
                                                                                   |
e ---------------------------------------------------------------------------------|
B ---------------------------------------------------------------------------------|
G ---------------------------------------------------------------------------------|
D ---------------------------------------------------------------------------------|
A ------------------------------------------------------------------6--7-----6-----|
E -0-0--6--0--7--0-9-0-0-7--0--6--0--4-6-4-0-0--0--6--0----7-0-0-9--------7----7-6-|
                                                                                   |
Guitar 3                                                                           |
                                                                                   |
e ---------------------------------------------------------------------------------|
B ---------------------------------------------------------------------------------|
G ---------------------------------------------------------------------------------|
D -2-2---------------2-2-------------------2-2-------------2-2-5-5-----------------|
A -2-2---------------2-2-------------------2-2-------------2-2-5-5-----------------|
E -0-0---------------0-0-------------------0-0-------------0-0-3-3-----------------|
 
Guitar 1 
 
e -------------14-14-------------------14-14-------------------14-14-------------------14-14------|
B -------12-12-------12-12-------12-12-------12-12-------12-12-------12-12-------12-12-------12-9-|
G -13-13-------------------13-13-------------------13-13-------------------13-13------------------|
D ------------------------------------------------------------------------------------------------|
A ------------------------------------------------------------------------------------------------|
E ------------------------------------------------------------------------------------------------|
                                                                                                  |
Guitar 2                                                                                          |
                                                                                                  |
e ------------------------------------------------------------------------------------------------|
B ------------------------------------------------------------------------------------------------|
G ------------------------------------------------------------------------------------------------|
D -6--6--------------------6--6--------------------6--6--------------------6--6-------------------|
A -6--6--6--4--------------6--6--6--4--------------6--6--6--4--------------6--6--6--4-------------|
E -4--4--------7--6--4-----4--4--------7--6--4-----4--4--------7--6--4-----4--4--------7--6--4----|
                                                                                                  |
Guitar 3                                                                                          |
                                                                                                  |
e ------------------------------------------------------------------------------------------------|
B ------------------------------------------------------------------------------------------------|
G -------------------------------------------------------------------------------4--4-------------|
D -6--6--------------------6--6--------------------6--6--------------------6--6--4--4-------------|
A -6--6--------------------6--6--------------------6--6--------------------6--6--2--2-------------|
E -4--4--------------------4--4--------------------4--4--------------------4--4-------------------|
 
 Guitar 1

e ---------------------------------------------------------------------------------|
B ---12-12-11-11-9-9-----12-12-11-11-9-9-----12-12-11-11-9-9-----12-12-11-11-9-9---|
G -9-----------------9-9-----------------9-9-----------------9-9-----------------9-|
D ---------------------------------------------------------------------------------|
A ---------------------------------------------------------------------------------|
E ---------------------------------------------------------------------------------|
                                                                                   |
 Guitar 2                                                                          |
                                                                                   |
e ---------------------------------------------------------------------------------|
B ---------------------------------------------------------------------------------|
G ---------------------------------------------------------------------------------|
D ---------------------------------------------------------------------------------|
A ------------------------------------------------------------------6--7-----6-----|
E -0-0--6--0--7--0-9-0-0-7--0--6--0--4-6-4-0-0--0--6--0----7-0-0-9--------7----7-6-|
                                                                                   |
 Guitar 3                                                                          |
                                                                                   |
e ---------------------------------------------------------------------------------|
B ---------------------------------------------------------------------------------|
G ---------------------------------------------------------------------------------|
D -2-2---------------2-2-------------------2-2-------------2-2-5-5-----------------|
A -2-2---------------2-2-------------------2-2-------------2-2-5-5-----------------|
E -0-0---------------0-0-------------------0-0-------------0-0-3-3-----------------|


2:38-2:58 Refrain (variation 2) 
Guitar 1 
 
e -------------14-14-------------------14-14-------------------14-14-------------------14-14------|
B -------12-12-------12-12-------12-12-------12-12-------12-12-------12-12-------12-12-------12-9-|
G -13-13-------------------13-13-------------------13-13-------------------13-13------------------|
D ------------------------------------------------------------------------------------------------|
A ------------------------------------------------------------------------------------------------|
E ------------------------------------------------------------------------------------------------|
                                                                                                  |
Guitar 2                                                                                          |
                                                                                                  |
e ------------------------------------------------------------------------------------------------|
B ------------------------------------------------------------------------------------------------|
G ------------------------------------------------------------------------------------------------|
D ------------------------------------------------------------------6---------8-------14-------13-|
A ------------------------------------------------------------------------------------------------|
E ------------------------------------------------------------------------------------------------|
                                                                                                  |
Guitar 3                                                                                          |
                                                                    |--------Palmmuted--------|   |
e ------------------------------------------------------------------------------------------------|
B ------------------------------------------------------------------------------------------------|
G ------------------------------------------------------------------------------------------------|
D ------------------------------------------------------------------6-6-6-6-6-6-6-6-6-6-6-6-6-6-6-|
A ------------------------------------------------------------------6-6-6-6-6-6-6-6-6-6-6-6-6-6-6-|
E ------------------------------------------------------------------4-4-4-4-4-4-4-4-4-4-4-4-4-4-4-|
 
Guitar 1 

e ---------------------------------------------------------------------------------|
B ---12-12-11-11-9-9-----12-12-11-11-9-9-----12-12-11-11-9-9-----12-12-11-11-9-9---|
G -9-----------------9-9-----------------9-9-----------------9-9-----------------9-|
D ---------------------------------------------------------------------------------|
A ---------------------------------------------------------------------------------|
E ---------------------------------------------------------------------------------|
                                                                                   |
Guitar 2                                                                           |
                                                                                   |
e ---------------------------------------------------------------------------------|
B ---------------------------------------------------------------------------------|
G ---------------------------------------------------------------------------------|
D ---------------------------------------------------------------------------------|
A ------------------------------------------------------------------6--7-----6-----|
E -0-0--6--0--7--0-9-0-0-7--0--6--0--4-6-4-0-0--0--6--0----7-0-0-9--------7----7-6-|
                                                                                   |
Guitar 3                                                                           |
                                                                                   |
e ---------------------------------------------------------------------------------|
B ---------------------------------------------------------------------------------|
G ---------------------------------------------------------------------------------|
D -2-2---------------2-2-------------------2-2-------------2-2-5-5-----------------|
A -2-2---------------2-2-------------------2-2-------------2-2-5-5-----------------|
E -0-0---------------0-0-------------------0-0-------------0-0-3-3-----------------|

Guitar 1

e -------------14-14-------------------14-14-------------------14-14-------------------14-14------|
B -------12-12-------12-12-------12-12-------12-12-------12-12-------12-12-------12-12-------12-9-|
G -13-13-------------------13-13-------------------13-13-------------------13-13------------------|
D ------------------------------------------------------------------------------------------------|
A ------------------------------------------------------------------------------------------------|
E ------------------------------------------------------------------------------------------------|
                                                                                                  |
Guitar 2                                                                                          |
                                                                                                  |
e ------------------------------------------------------------------------------------------------|
B ------------------------------------------------------------------------------------------------|
G ------------------------------------------------------------------------------------------------|
D -6--6--------------------6--6--------------------6--6--------------------6--6-------------------|
A -6--6--6--4--------------6--6--6--4--------------6--6--6--4--------------6--6--6--4-------------|
E -4--4--------7--6--4-----4--4--------7--6--4-----4--4--------7--6--4-----4--4--------7--6--4----|
                                                                                                  |
Guitar 3                                                                                          |
                                                                                                  |
e ------------------------------------------------------------------------------------------------|
B ------------------------------------------------------------------------------------------------|
G -------------------------------------------------------------------------------4--4-------------|
D -6--6--------------------6--6--------------------6--6--------------------6--6--4--4-------------|
A -6--6--------------------6--6--------------------6--6--------------------6--6--2--2-------------|
E -4--4--------------------4--4--------------------4--4--------------------4--4-------------------|

Guitar 1 

e ---------------------------------------------------------------------------------||
B ---12-12-11-11-9-9-----12-12-11-11-9-9-----12-12-11-11-9-9-----12-12-11-11-9-9---||
G -9-----------------9-9-----------------9-9-----------------9-9-----------------9-||
D ---------------------------------------------------------------------------------||
A ---------------------------------------------------------------------------------||
E ---------------------------------------------------------------------------------||
                                                                                   || 
Guitar 2                                                                           ||
                                                                                   ||
e ---------------------------------------------------------------------------------||
B ---------------------------------------------------------------------------------||
G ---------------------------------------------------------------------------------||
D ---------------------------------------------------------------------------------||
A ----------------------------------------------------------------6--7-----6-------||
E -0-0--6--0--7--0-9-0-0-7--0--6--0--4-6-4-0-0--0--6--0--7-0-0-9--------7----7-6-4-||
                                                                                   ||
Guitar 3                                                                           || 
                                                                                   ||
e ---------------------------------------------------------------------------------||
B ---------------------------------------------------------------------------------||
G ---------------------------------------------------------------------------------||
D -2-2---------------2-2-------------------2-2-------------------------------------||
A -2-2---------------2-2-------------------2-2-------------------------------------||
E -0-0---------------0-0-------------------0-0-------------------------------------||
Suggest correction
Creating personal tab
Creating personal tab
You can edit any tab online and save it as your Personal.

You can edit, replace or remove any tab part or add personal notes – all changes will be seen only by you.

Personal tabs can be accessed anytime from any device, even offline.
Learn more »
Give kudos to tab author, rate the tab!
1 2 3 4 5
comments
print report bad tab
guest
You may want to rate the tab now too:
select rating
Wanna post a correction for this tab? Suggest correction