Oops, an error
Loading. Please wait.

A Life Of Possibilities Tab

2,774 views 15 this week
no commentswrite comment
1 2 3 4 5
excellent!
x 6
add to favorites
launch autoscroll
font size
0
reset
how to read this tab
guitar tuner
Tab Pro tools
  • play this tab
  • loop segment
  • change instrument
  • show fretboard
  • metronome
×
Best way to learn
"A Life Of Possibilities"
Autoscroll
slow
fast
+/-
esc
set tempo
stop
Contributor
Difficulty
novice
Brought over from 
http://www.guitartabsexplorer.com/dismemberment_plan-tabs/a_life_of_possibilities-tab.php

Props to the original submitter.


Verse:
0:13
Gtr. 1

"It's all good..."
e----------------------------------|
b----------------7-----------------|
g----------------9-----------------|
d----------------9-----------------|
a----------------10----------------|
e----------------------------------|

0:31, 1:16, 2:02
Gtr. 1


e--------------------------------------------------------------------------|
b--------------------------------------------------------------------------|
g---7h9p7h9p7h9p7-----/7---------------7h9p7h9p7h9p7-----/7----------7-----|
d-----------------9--------9--7-\-5------------------9--------9--7-5-------|
a--------------------------------------------------------------------------|
e--------------------------------------------------------------------------|

(continued)
e--------------------------------------------------------------------------|
b-----------------------------------------------------------------10-12----|
g-7h9p7h9p7h9p7-----/7----------------------7-7---7--9-9---9-/-11-------11-|
d---------------9--------9--7---7--9-9---9---------------------------------|
a--------------------------------------------------------------------------|
e--------------------------------------------------------------------------|

(continued)
e-------------------------|
b-------7-----------------|
g-------9-----------------|
d-------9-----------------|
a-------10----------------|
e-------------------------|

Gtr. 2

e-------------------------------------------------------------------------------|
b-------------------------------------------------------------------------------|
g---4h5p4h5p4h5p4----/4-----------4h5p4h5p4h5p4----/4-------------4h5p4h5p4h5p4-|
d-----------------5------5--2-2-----------------5------5--2-2-5-----------------|
a-------------------------------------------------------------------------------|
e-------------------------------------------------------------------------------|

(continued)

e-------------------------------------------------------------|
b---------------------------------------------------10--------|
g----/4--------------------------------------9-/-11----11-----|
d-5------5--2-2-0-5-5---5--7-7---7--9-9---9-------------------|
a-------------------------------------------------------------|
e-------------------------------------------------------------|

1:04

Gtr. 2

e----------x-x---------x-x----|
b---x-x--x-x-x--x-x--x-x-x----|
g---x-x--x-x-x--x-x--x-x-x----|
d---x-x--x------x-x--x--------| x16
a-----------------------------|
e-----------------------------|

1:12, 1:43, 1:58

Gtr. 1


e----------------------------------|
b---1----0--------3----1-p-0-------|
g---2----0--------2----2-----------|
d---2----2-p-(0)--2----2-----------|
a----------------------------------|
e----------------------------------|

1:33

Gtr. 1

e--------------------------|
b----------7---------------|
g--------9----9------------|
d------9--------9----------|
a---10------------10-------|
e--------------------------|

1:47

Gtr. 1

e--------------------------|
b---7------7---------------|
g---9-----------9----------|
d---9--------------9-------|
a---10---------------------|
e--------------------------|

2:33

Gtr. 2 w/ tremelo

e----------------------|
b----7-----------------|
g----9-----------------|
d----9-----------------|
a----10----------------|
e----------------------|

Bridge:
2:35

Gtr. 2 (Gtr. 1 strums same chord pattern)
            "There's a feeling comin' back..."
e---------------------------------------------------|
b---5---------------7---------9--------13-----------|
g---4---------------6---------8--------12-----------|
d---4---------------6---------8--------12-----------|
a---------------------------------------------------|
e---------------------------------------------------|

Chorus:
2:50

Gtr. 1 w/ distortion (eighth note strumming)

                                                pm
e-------------------------------------------------------------------|
b-------------------------------------------------------------------|
g-------------------------------------------------------------------|
d---10--------6--------7--------5--------5--------4-----------------|x3
a---10--------6--------7--------6--------5--------3-----------------|
e---8---------8--------5--------4--------3--------2-----------------|

Gtr. 2 (eight note strumming throughout)

e-------------------------------------------------------------------|
b-------------------------------------------------------------------|
g-------------------------------------------------------------------|
d---10--------------------------------------------------------------|x2
a---x---------------------------------------------------------------|
e---8---------------------------------------------------------------|

3:17
(continued)
e----------------------------------------------------------------------|
b----------------------------------------------------------------------|
g----------------------------------------------------------------------|
d---10------14--15--------10-------------------------------------------|
a---x-------x---x---------x--------------------------------------------|
e---8-------12--13--------8--------------------------------------------|

Outro:
3:30

Gtr. 2
"...to, yeah yeah yeah"
e---0----------------------------0--------------|
b---0----------------------------0--------------|
g---5------------------5---5---5-5--------------|
d---5----------------------------x--------------|x2
a---3----------------3---3---3---3--------------|
e---3-------------------------------------------|

Gtr. 1 (sporadic strumming)

e---0-------------------------------------------|
b---0-------------------------------------------|
g---5-------------------------------------------|
d---5-------------------------------------------|
a---3-------------------------------------------|
e---3-------------------------------------------|

3:44

Gtr. 2

e-------5------5--------------------5-----------|
b-----5---7----7--------------------7-----------|
g---7----------7--------------------7-----------|
d-----------------------------------------------|x5
a-----------------------------------------------|
e-----------------------------------------------|

Gtr. 1

e--------------5--------------------5-----------|
b--------------7--------------------7-----------|
g--------------4------------7-9-----7-----------|
d-----------------------/9------9---------------|x5
a-----------------------------------------------|
e-----------------------------------------------|

4:24

Gtr. 2

e---5----------------0--------------------------|
b---7----------------5--------------------------|
g---7----------------7--------------------------|
d-----------------------------------------------|
a-----------------------------------------------|
e-----------------------------------------------|

Gtr. 1

e---5-------------------------------------------|
b---7----------------7--------------------------|
g---7----------------7--------------------------|
d-----------------------------------------------|
a-----------------------------------------------|
e-----------------------------------------------|

If you have questions or comments e-mail me at:
cdunnetlrx@yahoo.com
comments
print report bad tab
I want to post or [tab]
guest
You may want to rate the tab now too:
select rating
Please do not post tabs as comments. Select "correction" instead!