Oops, an error
Loading. Please wait.
4,943 views 3 this week
2 commentsread comments
1 2 3 4 5
x 4
add to favorites
×
Save as Personal and add changes to this tab that will be seen only by you. Learn more ›
×
You can save this tab as Personal to edit and correct it or add notes. All changes will be seen only by you. Learn more »
launch autoscroll
font size
0
reset
how to read this tab
guitar tuner
edit
Autoscroll
slow
fast
+/-
esc
set tempo
stop
Author
Difficulty
http://www.dismembermentplan.com

Band Name: Dismemberment Plan
Song Title: The City
Album: Emergency & I


intro:
Guitar 1
E----------------|
B----------------|
G--4--4--4---4---|
D-4--4--4--44----|
A----------------|
E----------------|

Guitar 2
E-------------|
B-4-4-4-4-5-4-|
G-4-4-4-4-4-4-|
D-4-4-4-4-4-4-|
A-------------|
E-------------|

Verse
pt.1
E-------------|
B-4-4-4-4-5-4-|
G-4-4-4-4-4-4-|
D-4-4-4-4-4-4-|
A-------------|
E-------------|

pt.2
E-------------|
B-2-2-2-2-2-2-|
G-2-2-2-2-2-2-|
D-4-4-4-4-4-4-|
A-------------|
E-------------|


The other parts are just simple changes similar to the rest of the song
Suggest correction
Creating personal tab
Creating personal tab
You can edit any tab online and save it as your Personal.

You can edit, replace or remove any tab part or add personal notes – all changes will be seen only by you.

Personal tabs can be accessed anytime from any device, even offline.
Learn more »
comments
print report bad tab
2 comments total.
0 reply
Indie Purist 949 Dec 17, 2009 06:10 PM

it's simple but that's pretty much it

0 reply
bitterboyblue 31 Mar 01, 2013 06:15 AM

what about the "i'm not unsympathetic" part? there are a lot of (new) chord changes there.

guest
You may want to rate the tab now too:
select rating
Wanna post a correction for this tab? Suggest correction