Oops, an error
Loading. Please wait.

Other Side bass

version 2
version 2

Whole song

1,276 views 3 this week
1 commentread comment
1 2 3 4 5
x 3
add to favorites
×
Save as Personal and add changes to this tab that will be seen only by you. Learn more ›
×
You can save this tab as Personal to edit and correct it or add notes. All changes will be seen only by you. Learn more »
launch autoscroll
font size
0
reset
guitar tuner
edit
Autoscroll
slow
fast
+/-
esc
set tempo
stop
Difficulty
intermediate
Otherside by The Dismemberment Plan     (Do 9 10 9 10 instead of 4 5 4 5 to make it sound better)

       [INTRO]
D|2->-----|--------|--------|--------|--------|--------|--------|--------|

       [VERSE]
G|4-4-4---|--------|--------|--------|--------|--------|--------|--------|
D|------5-|5-5-4-4-|4-------|--------|--------|--------|--------|--------|
A|--------|--------|--5-5-5-|--------|--------|--------|--------|--------|  
E|--------|--------|--------|h2/-0-0-|--------|--------|--------|--------| 

G|4-4-4---|--------|--------|--------|--------|--------|--------|--------|
D|------5-|5-5-4-4-|4-------|--------|--------|--------|--------|--------|
A|--------|--------|--5-5-5-|--------|--------|--------|--------|--------|  
E|--------|--------|--------|h2/-5-5-|--------|--------|--------|--------| 

G|4-4-4---|--------|--------|--------|--------|--------|--------|--------|
D|------5-|5-5-4-4-|4-------|--------|--------|--------|--------|--------|
A|--------|--------|--5-5-5-|--------|--------|--------|--------|--------|  
E|--------|--------|--------|h2/-0-0-|--------|--------|--------|--------| 

G|4-4-4---|--------|--------|--------|--------|--------|--------|--------|
D|------5-|5-5-4-4-|4-------|--------|--------|--------|--------|--------|
A|--------|--------|--5-5-5-|--------|--------|--------|--------|--------|  
E|--------|--------|--------|2-/-5-5/17-------|--------|--------|--------| 

G|4-4-4---|--------|--------|--------|--------|--------|--------|--------|
D|------5-|5-5-4-4-|4-------|--------|--------|--------|--------|--------|
A|--------|--------|--5-5-5-|--------|--------|--------|--------|--------|  
E|--------|--------|--------|h2/-0-0-|--------|--------|--------|--------| 

G|4-4-4---|--------|--------|--------|--------|--------|--------|--------|
D|------5-|5-5-4-4-|4-------|--------|--------|--------|--------|--------|
A|--------|--------|--5-5-5-|--------|--------|--------|--------|--------|  
E|--------|--------|--------|2-/-5-5-|---5---5|---5---5|---5---5|---5---5| 

       [CHORUS]
G|4-4-4---|--------|--------|--------|4-4-4---|--------|--------|--------|
D|------5-|5-5-4-4-|4-------|--------|------5-|5-5-4-4-|4-------|--------|
A|--------|--------|--------|--------|--------|--------|--------|--------|  
E|--------|--------|--------|--------|--------|--------|--------|--------| 

G|--------|--------|--------|--------|--------|--------|--------|--------| 
D|--------|--------|--------|--------|--------|--------|--------|--------| 
A|--------|--------|--------|--------|--------|--------|--------|--------| 
E|---2-2--|--------|--------|---2-2--|-2h5-5-5|--------|----2p0-|--------| 

G|4-4-4---|--------|--------|--------|4-4-4---|--------|--------|--------|
D|------5-|5-5-4-4-|4-------|--------|------5-|5-5-4-4-|4-------|--------|
A|--------|--------|--------|--------|--------|--------|--------|--------|  
E|--------|--------|--------|--------|--------|--------|--------|--------| 

G|--------|--------|--------|--------|--------|--------|--------|--------| 
D|--------|--------|--------|--------|--------|--------|--------|--------| 
A|--------|--------|--------|--------|--------|--------|--------|--------| 
E|---2-2--|--------|--------|---2-2-2|-2h5-5-5|--------|----2p0-|--------| 

G|4-4-4---|--------|--------|--------|4-4-4---|--------|--------|--------|
D|------5-|5-5-4-4-|4-------|--------|------5-|5-5-4-4-|4-------|--------|
A|--------|--------|--------|--------|--------|--------|--------|--------|  
E|--------|--------|--------|--------|--------|--------|--------|--------| 

G|--------|--------|--------|--------|--------|--------|--------|--------| 
D|--------|--------|--------|--------|--------|--------|--------|--------| 
A|--------|--------|--------|--------|--------|--------|--------|--------| 
E|---2-2--|--------|--------|---2-2-2|-2h5-5-5|--------|----2p0-|--------| 

G|4-4-4---|--------|--------|--------|4-4-4---|--------|--------|--------|
D|------5-|5-5-4-4-|4-------|--------|------5-|5-5-4-4-|4-------|--------|
A|--------|--------|--------|--------|--------|--------|--------|--------|  
E|--------|--------|--------|--------|--------|--------|--------|--------| 

G|--------|--------|--------|--------|--------|--------|--------|--------| 
D|--------|--------|--------|--------|--------|--------|--------|--------| 
A|--------|--------|--------|--------|--------|--------|--------|--------| 
E|---2-2--|--------|--------|---2-2-2|h3h5-5-5|--------|---2p0--|---2p0--| 
       
       [VERSE]

G|4-4-4---|--------|--------|--------|--------|--------|--------|--------|
D|------5-|5-5-4-4-|4-------|--------|--------|--------|--------|--------|
A|--------|--------|--5-5-5-|--------|--------|--------|--------|--------|  
E|--------|--------|--------|h2/-0-0-|--------|---19/15|19/15---|---19/15| 

G|4-4-4---|--------|--------|--------|--------|--------|--------|--------|
D|------5-|5-5-4-4-|4-------|--------|--------|--------|--------|--------|
A|--------|--------|--5-5-5-|--------|--------|--------|--------|--------|  
E|--------|--------|--------|h2/-5-5-|--------|---8h10-|8h10----|---8-h-10| 

G|4-4-4---|--------|--------|--------|--------|--------|--------|--------|
D|------5-|5-5-4-4-|4-------|--------|--------|--------|--------|--------|
A|--------|--------|--5-5-5-|--------|--------|--------|--------|--------|  
E|--------|--------|--------|h2/-0-0-|--------|-----17/|////////|///////9| 

G|4-4-4---|--------|--------|--------|--------|--------|--------|--------|
D|------5-|5-5-4-4-|4-------|--------|--------|--------|--------|--------|
A|--------|--------|--5-5-5-|--------|--------|--------|--------|--------|  
E|--------|--------|--------|2-/-5-5-|---5---5|---5---5|---5---5|---5---5| 
       
       [CHORUS]

G|4-4-4---|--------|--------|--------|4-4-4---|--------|--------|--------|
D|------5-|5-5-4-4-|4-------|--------|------5-|5-5-4-4-|4-------|--------|
A|--------|--------|--------|--------|--------|--------|--------|--------|  
E|--------|--------|--------|--------|--------|--------|--------|--------| 

G|--------|--------|--------|--------|--------|--------|--------|--------| 
D|--------|--------|--------|--------|--------|--------|--------|--------| 
A|--------|--------|--------|--------|--------|--------|--------|--------| 
E|----2-2-|--------|--------|---2-2--|-2h5-5-5|--------|----2p0-|--------| 

G|4-4-4---|--------|--------|--------|4-4-4---|--------|--------|--------|
D|------5-|5-5-4-4-|4-------|--------|------5-|5-5-4-4-|4-------|--------|
A|--------|--------|--------|--------|--------|--------|--------|--------|  
E|--------|--------|--------|--------|--------|--------|--------|--------| 

G|--------|--------|--------|--------|--------|--------|--------|--------| 
D|--------|--------|--------|--------|--------|--------|--------|--------| 
A|--------|--------|--------|--------|--------|--------|--------|--------| 
E|----2-2-|--------|--------|---2-2-2|-2h5-5-5|--------|----2p0-|--------| 

G|4-4-4---|--------|--------|--------|4-4-4---|--------|--------|--------|
D|------5-|5-5-4-4-|4-------|--------|------5-|5-5-4-4-|4-------|--------|
A|--------|--------|--------|--------|--------|--------|--------|--------|  
E|--------|--------|--------|--------|--------|--------|--------|--------| 

G|--------|--------|--------|--------|--------|--------|--------|--------| 
D|--------|--------|--------|--------|--------|--------|--------|--------| 
A|--------|--------|--------|--------|--------|--------|--------|--------| 
E|---2-2--|--------|--------|---2-2-2|-2h5-5-5|--------|----2p0-|----2p0-| 
                        
       [BRIDGE]
                       
G|--------|--------|--------|--------|--------|--------|--------|--------| 
D|5-5-----|--------|--------|--------|--------|--------|--------|--------| 
A|--------|--------|--------|--------|--------|--------|--------|--------|  
E|3-3-----|--------|---3----|--------|----2---|--------|----2---|----2p0-| 

G|--------|--------|--------|--------|--------|--------|--------|--------| 
D|--------|--------|--------|--------|--------|--------|--------|--------| 
A|--------|--------|--------|--------|--------|--------|--------|--------|  
E|--------|---3----|--------|----2p0-|5h7-----|-----7--|7p5h7---|----5h7-|

G|--------|--------|--------|--------|--------|--------|--------|--------| 
D|--------|--------|--------|--------|--------|--------|--------|--------| 
A|--------|--------|--------|--------|--------|--------|--------|--------|  
E|3-3-----|--------|--------|--------|10----10|----10--|--------|--------|

G|--------|--------|--------|--------|------|------|------|---|
D|--------|--------|--------|--------|------|------|------|---|
A|--------|--------|--------|--------|------|------|------|---|           ----4-5-7- 
E|8-----8-|-----8--|--------|--------|7-----|5-----|3-----|2--|  (guitar: -7-------- )

       [VERSE]

G|4-4-4---|--------|--------|--------|--------|--------|--------|--------|
D|------5-|5-5-4-4-|4-------|--------|--------|--------|--------|--------|
A|--------|--------|--5-5-5-|--------|--------|--------|--------|--------|  
E|--------|--------|--------|h2/-0-0-|--------|---19/15|19/15---|---19/15| 

G|4-4-4---|--------|--------|--------|--------|--------|--------|--------|
D|------5-|5-5-4-4-|4-------|--------|--------|--------|--------|--------|
A|--------|--------|--5-5-5-|--------|--------|--------|--------|--------|  
E|--------|--------|--------|h2/-5-5-|--------|---8h10-|8h10----|---8-h-10| 

G|4-4-4---|--------|--------|--------|--------|--------|--------|--------|
D|------5-|5-5-4-4-|4-------|--------|--------|--------|--------|--------|
A|--------|--------|--5-5-5-|--------|--------|--------|--------|--------|  
E|--------|--------|--------|h2/-0-0-|--------|---19/15|19/15---|---19/15| 

G|4-4-4---|--------|--------|--------|--------|--------|--------|--------|
D|------5-|5-5-4-4-|4-------|--------|--------|--------|--------|--------|
A|--------|--------|--5-5-5-|--------|--------|--------|--------|--------|  
E|--------|--------|--------|h2/-5-5-|--------|---8h10-|8h10----|---8-h-10| 

G|4-4-4---|--------|--------|--------|--------|--------|--------|--------|
D|------5-|5-5-4-4-|4-------|--------|--------|--------|--------|--------|
A|--------|--------|--5-5-5-|--------|--------|--------|--------|--------|  
E|--------|--------|--------|h2/-0-0-|--------|-----17/|////////|///////9| 

G|4-4-4---|--------|--------|--------|--------|--------|--------|--------|
D|------5-|5-5-4-4-|4-------|--------|--------|--------|--------|--------|
A|--------|--------|--5-5-5-|--------|--------|--------|--------|--------|  
E|--------|--------|--------|2-/-5-5-|---5---5|---5---5|---5---5|---5---5|  
       
       [OUTRO]

G|4-4-4---|--------|--------|--------|4-4-4---|--------|--------|--------|
D|------5-|5-5-4-4-|4-------|--------|------5-|5-5-4-4-|4-------|--------|
A|--------|--------|--5-5-5-|--------|--------|--------|--5-5-5-|--------|  
E|--------|--------|--------|h2/-0-0-|--------|--------|--------|h2/-0-0-|
 
G|4-4-4---|--------|--------|--------|4-4-4---|--------|--------|--------|
D|------5-|5-5-4-4-|4-------|--------|------5-|5-5-4-4-|4-------|--------|
A|--------|--------|--5-5-5-|--------|--------|--------|--5-5-5-|--------|  
E|--------|--------|--------|h2/-5-5-|--------|--------|--------|h2/-5-5-| 

G|4-4-4---|--------|--------|--------|4-4-4---|--------|--------|--------|
D|------5-|5-5-4-4-|4-------|--------|------5-|5-5-4-4-|4-------|--------|
A|--------|--------|--5-5-5-|--------|--------|--------|--5-5-5-|--------|  
E|--------|--------|--------|h2/-0-0-|--------|--------|--------|h2/-0-0-|
 
G|4-4-4---|--------|--------|--------|4-4-4---|--------|--------|--------|
D|------5-|5-5-4-4-|4-------|--------|------5-|5-5-4-4-|4-------|--------|
A|--------|--------|--5-5-5-|--------|--------|--------|--5-5-5-|--------|  
E|--------|--------|--------|h2/-5-5-|--------|--------|--------|h2/-5-5-|
 
G|--------|--------|--------|--------|--------|--------|--------|--------| 
D|--------|--------|--------|--------|--------|--------|--------|--------| 
A|--------|--------|--------|--------|--------|--------|--------|--------| 
E|0-------|--------|--------|--------|--------|--------|--------|--------| 
 

            
            
Suggest correction
Creating personal tab
Creating personal tab
You can edit any tab online and save it as your Personal.

You can edit, replace or remove any tab part or add personal notes – all changes will be seen only by you.

Personal tabs can be accessed anytime from any device, even offline.
Learn more »
Give kudos to tab author, rate the tab!
1 2 3 4 5
comments
print report bad tab
1 comment total.
0 reply
keneticshark24 135 May 24, 2007 09:38 AM

I love this song, and this tab is great - spot on. Much better than mine. I was thinking of 444, but I put 999 on the D instead. Cool.

Could you do some other songs off of "Change", like "The Face Of The Earth"? That would be fab.

Thank you very much.

guest
Wanna post a correction for this tab? Suggest correction