Oops, an error
Loading. Please wait.

The City tab

4,560 views 9 this week
1 commentread comment
1 2 3 4 5
x 6
add to favorites
×
Save as Personal and add changes to this tab that will be seen only by you. Learn more ›
×
You can save this tab as Personal to edit and correct it or add notes. All changes will be seen only by you. Learn more »
launch autoscroll
font size
0
reset
how to read this tab
guitar tuner
edit
Autoscroll
slow
fast
+/-
esc
set tempo
stop
Intro:


Travis's guitar:

---------------------------------------------|
---------------------------------------------|
--------4-------4-------4---------4----------|
----4-------4-------4-------4--4-----4-------|
---------------------------------------------|
---------------------------------------------|


Jason's guitar:

-----------------------------------------------|
---4----4----4----4----4----4----4----4--------|
---4----4----4----4----4----4----4----4--------|
---2----2----2----2----2----2----2----2--------|
---4----4----4----4----4----4----4----4--------|
-----------------------------------------------|

-----------------------------------------------|
---4----4----4----4----4----4----4----5--------|
---4----4----4----4----4----4----4----4--------|
---2----2----2----2----2----2----2----2--------|
---4----4----4----4----4----4----4----4--------|
-----------------------------------------------|


Right before the verse comes in, Travis does this:


-------------------------------------------0--------------|
---------------------2-----2-----X----X----2--------------|
-----------------4------4--------X----X----4--------------|
---(4)--------4------------------X----X----4--------------|
---------------------------------X----X-------------------|
----------------------------------------------------------|


Verse:
Jason's guitar
("Now I notice the streetlamp's hum...")

-----------------------------------------------|
---4----4----4----4----4----4----4----5--------|
---4----4----4----4----4----4----4----4--------|
---2----2----2----2----2----2----2----2--------|
---4----4----4----4----4----4----4----4--------|
-----------------------------------------------|  X3


-----------------------------------------------|
---7----7----7----7----7----7----7----7--------|
---6----6----6----6----6----6----6----6--------|
---7----7----7----7----7----7----7----7--------|
---5----5----5----5----5----5----5----5--------|
-----------------------------------------------|  X1

Chorus:
Jason's guitar
(So I'm not unsympathetic...")
------------------4-------0-------0-------0------(0)----|
---4------5-------4-------0-------0-------0-------9-----|
---4------4-------6-------4-------7-------9-------11----|
---2------4-------6-------4-------7-------9-------11----|
---4------4--------------(0)-----(0)-----(0)------0-----|
--------------------------------------------------X-----|
Travis's guitar
-------------------------------------------------(0)----|
-------------------------------------------------(0)----|
--------------------REST--------------------------4-----|
--------------------------------------------------4-----|
--------------------------------------------------------|
--------------------------------------------------------|
Repeat Intro...

Verse 2:

("Sometimes I stand on my roof at night...")

There's no guitar here that I know of, but there is an effect fading in to what sounds
this chord several times, it could be a heavily effected guitar:

------------|
----4-------|
----4-------|
----2-------|
----4-------|
------------|

and then to this:

------------|
----7-------|
----6-------|
----7-------|
----5-------|
------------|


Repeat Chorus...

Repeat Intro...


Bridge/Chorus 2/Thing:

("Oh I never had just whatever it is...)

This part I'm not entirely sure but this sounds pretty good:


Jason's guitar:


--------------------------------------------------------|
---12-12-12-12-12---12-12-12-12-12-12---10-9--7--5------|
---X--X--X--X--X----X--X--X--X--X--X----X--X--X--X------|
---9--9--9--9--9----9--9--9--9--9--9----7--6--4--2------|
--------------------------------------------------------|
--------------------------------------------------------|

--------------------------------------------------------|
---12-12-12-12-12---12-12-12-12-12-12---9--10-/14-/19---|
---X--X--X--X--X----X--X--X--X--X--X----X--X--/X--/X----|
---9--9--9--9--9----9--9--9--9--9--9----6--7--/11-/16---|
--------------------------------------------------------|
--------------------------------------------------------|


Travis's guitar:


--------------------------------------------------------|
---5--5--5--5--5----5--5--5--5--5--5----7--7--7--7------|
---6--6--6--6--6----6--6--6--6--6--6----6--6--6--6------|
---6--6--6--6--6----6--6--6--6--6--6----6--6--6--6------|
---4--4--4--4--4----4--4--4--4--4--4----4--4--4--4------|
--------------------------------------------------------|


--------------------------------------------------------|
---5--5--5--5--5----5--5--5--5--5--5----7--7--7--7------|
---6--6--6--6--6----6--6--6--6--6--6----6--6--6--6------|
---6--6--6--6--6----6--6--6--6--6--6----6--6--6--6------|
---4--4--4--4--4----4--4--4--4--4--4----4--4--4--4------|
--------------------------------------------------------|


("And all I ever say now is goodbye...")

Jason's guitar:

-------------------------------------------------------|
---/21---21---21---21---21---21---21---21---21---21----|
---/X----X----X----X----X----X----X----X----X----X-----|
---/18---18---18---18---18---18---18---18---18---18----|
-------------------------------------------------------|
-------------------------------------------------------|

Travis's guitar:

-------------------------------------------------------|
-------------------------------------------------------|
----4----4----4----4----4----4----4----4----4----4-----|
----X----X----X----X----X----X----X----X----X----X-----|
----2----2----2----2----2----2----2----2----2----2-----|
-------------------------------------------------------|


Outro:

Repeat Intro

            
            
Suggest correction
Creating personal tab
Creating personal tab
You can edit any tab online and save it as your Personal.

You can edit, replace or remove any tab part or add personal notes – all changes will be seen only by you.

Personal tabs can be accessed anytime from any device, even offline.
Learn more »
comments
print report bad tab
1 comment total.
+2 reply
Matisa 394 Jul 10, 2012 10:58 AM

Great tab!
This is the syntesizer that comes in at 00:26:

First part:
G |---6-----/20------16----13----11-13\-----|
D |o----------------------------------------|
A |o--4-----/18------14----11----9--11\-----|
E |-----------------------------------------|

G |--6-----/20-------16----20----21-20\-----|
D |----------------------------------------o| 3x
A |--4-----/18-------14----18----19-18\----o|
E |-----------------------------------------|

Last time:
G |--6-----/20-------16----13----11-13\-----|
D |-----------------------------------------|
A |--4-----/18-------14----11----9--11\-----|
E |-----------------------------------------|

G |--6-----/20-------16----23----21-20\-----|
D |-----------------------------------------|
A |--4-----/18-------14----21----19-18\-----|
E |-----------------------------------------|
A pitch bender is used in order to obtain the sliding effect.

guest
You may want to rate the tab now too:
select rating
Wanna post a correction for this tab? Suggest correction