Oops, an error
Loading. Please wait.

Drain The Blood bass

version 2
version 2

Whole song

Interactive

3,947 views 9 this week
no commentswrite comment
1 2 3 4 5
x 4
add to favorites
×
Save as Personal and add changes to this tab that will be seen only by you. Learn more ›
×
You can save this tab as Personal to edit and correct it or add notes. All changes will be seen only by you. Learn more »
launch autoscroll
font size
0
reset
guitar tuner
edit
Autoscroll
slow
fast
+/-
esc
set tempo
stop
Author
Difficulty
Band- The Distillers
Song- Drain The Blood
Album- Coral Fang

Tuning: Standard (E A D G)


I play this music with my band like this and it sounds really well.
It may not be 100% what they play, but its correct :)


Intro ( Comes with the Drums )
G|----------------------------------------------------------------||     
D|----------------------------------------------------------------||     
A|----------------------------------------------------------------||     
E|-------3-3-3-3-3-3-3-3-4-4-4-4-4-4-4-4--------------------------||     
                                                                         
 


Verse                                                                        
G|----------------------------------------------------------------||
D|------3-2----------0--------------3-2----------0---2-3----------||
A|-0-0------3--3-2-3---3-2-0---0--------3--3-2-3---3--------------||
E|---------------------------3------------------------------------||


G|----------------------------------------------------------------||
D|------3-2----------0--------------------------------------------||
A|-0--0-----3--3-2-3---3-2-0--------------------------------------||
E|---------------------------3-3-3-3-3-3-3-3-3-4-4-4-4-4-4-4-4----||


Chorus
G|----------------------------------------------------------------||
D|------------------------------------------------3-2-----3-2-----||
A|3-3-3-3-3-3-3-3-3-3-3-3-3-3-3-2-0-0-0-0-0-0-0-0-----3-2-----3-2-||
E|----------------------------------------------------------------||

G|----------------------------------------------------------------||
D|----------------------------------------------------------------||
A|3-3-3-3-3-3-3-3-3-3-3-3-3-3-3-2-0-0-0-0-0-0-0-0-0-0-0-0-0-0-0-0-||
E|----------------------------------------------------------------||


Chorus2 (Gone Away....)

G|----------------------------------------------------------------||
D|----------------------------------------------------------------||
A|3-3-3-3-3-3-3-3-3-3-3-3-3-3-3-3-----------------------3---2-----||
E|--------------------------------3-3-3-3-3-3-3-3-4-4-4-----------||


Verse 2x                                                                      
G|----------------------------------------------------------------||
D|------3-2----------0--------------3-2----------0---2-3----------||
A|-0-0------3--3-2-3---3-2-0---0--------3--3-2-3---3--------------||
E|---------------------------3------------------------------------||


G|----------------------------------------------------------------||
D|------3-2----------0--------------------------------------------||
A|-0--0-----3--3-2-3---3-2-0--------------------------------------||
E|---------------------------3-3-3-3-3-3-3-3-3-4-4-4-4-4-4-4-4----||


Chorus
G|----------------------------------------------------------------||
D|------------------------------------------------3-2-----3-2-----||
A|3-3-3-3-3-3-3-3-3-3-3-3-3-3-3-2-0-0-0-0-0-0-0-0-----3-2-----3-2-||
E|----------------------------------------------------------------||

G|----------------------------------------------------------------||
D|----------------------------------------------------------------||
A|3-3-3-3-3-3-3-3-3-3-3-3-3-3-3-2-0-0-0-0-0-0-0-0-0-0-0-0-0-0-0-0-||
E|----------------------------------------------------------------||


Chorus2 (Gone Away....)

G|----------------------------------------------------------------||
D|----------------------------------------------------------------||
A|3-3-3-3-3-3-3-3-3-3-3-3-3-3-3-3-0-0-0-0-0-0-0-0-0-0-0-0-0-0-0-0-||
E|----------------------------------------------------------------||

G|----------------------------------------------------------------||
D|----------------------------------------------------------------||
A|3-3-3-3-3-3-3-3-3-3-3-3-3-3-3-3-----------------------3---2-----||
E|--------------------------------3-3-3-3-3-3-3-3-4-4-4-----------||



Bridge
G|----------------------------------------------------------------||
D|----------------------------------------------------------------||
A|----------------------------------------------------------------||
E|-5/----12\----1-1--1-1-1--1-1-1--1-1-1--1-3-3--3-3-3--4-4--4-4-4||




Bridge2 x2
G|----------------------------------------------------------------||
D|-----------------------------2-2--2-2-2--2-2-2--2-2-2--2--------||
A|-0-0--0-0-0--0-0-0--0-0-0--0------------------------------------||
E|----------------------------------------------------------------||

                                  1st ending            2nd ending
G|----------------------------|------------------------|----------||
D|----------------------------|------------------------|----------||
A|----------------------------|------------------------|----------||
E|1-1--1-1-1--1-1-1--1-1-1--1-|3-3--3-3-3--3-4-4--4-4-4|-3(pause)-||


Chorus 3x
G|----------------------------------------------------------------||
D|------------------------------------------------3-2-----3-2-----||
A|3-3-3-3-3-3-3-3-3-3-3-3-3-3-3-2-0-0-0-0-0-0-0-0-----3-2-----3-2-||
E|----------------------------------------------------------------||

G|----------------------------------------------------------------||
D|----------------------------------------------------------------||
A|3-3-3-3-3-3-3-3-3-3-3-3-3-3-3-2-0-0-0-0-0-0-0-0-0-0-0-0-0-0-0-0-||
E|----------------------------------------------------------------||


Chorus2 (The Last Gone Away....)

G|----------------------------------------------------------------||
D|----------------------------------------------------------------||
A|3-3-3-3-3-3-3-3-3-3-3-3-3-3-3-3-0-0-0-0-0-0-0-0-0-0-0-0-0-0-0-0-||
E|----------------------------------------------------------------||

G|----------------------------------------------------------------||
D|----------------------------------------------------------------||
A|3-3-3-3-3-3-3-3-3-3-3-3-3-3-3-3-----------------------3---2--0~~||
E|--------------------------------3-3-3-3-3-3-3-3-4-4-4-----------||

Suggest correction
Creating personal tab
Creating personal tab
You can edit any tab online and save it as your Personal.

You can edit, replace or remove any tab part or add personal notes – all changes will be seen only by you.

Personal tabs can be accessed anytime from any device, even offline.
Learn more »
comments
print report bad tab
guest
You may want to rate the tab now too:
select rating
Wanna post a correction for this tab? Suggest correction