Oops, an error
Loading. Please wait.

Love Is Paranoid bass

version 1
version 1

Whole song

Interactive

2,619 views 9 this week
no commentswrite comment
1 2 3 4 5
2 more votes to show rating
add to favorites
×
Save as Personal and add changes to this tab that will be seen only by you. Learn more ›
×
You can save this tab as Personal to edit and correct it or add notes. All changes will be seen only by you. Learn more »
launch autoscroll
font size
0
reset
guitar tuner
edit
Autoscroll
slow
fast
+/-
esc
set tempo
stop
Author
 ~ LET RING


PART1                                   4X
G-----------------------------------------|
D-----------------------------------------|
A-8888-8888-----------4444-4444-3333-3333-|
E-----------4444-4444---------------------|

PART2
G-----------|
D-----------|
A-3333-3333-|
E-----------|

PART3
G------------------------------------------------------------------------------|
D------------------------------------------------------------------------------|
A---------------------1111-1111-44-4-4-44---------------------1111-1111-44-4-4-|
E-1111-1111-4444-4444---------------------1111-1111-4444-4444------------------|

REPEAT PART1
REPEAT PART2
REPEAT PART3

PART4
G----------------------------------------------------------------------------|
D----------------------------------------------------------------------------|
A-------------------1111-1111-44-4-4-44---------------------1111-1111-44-4-4-|
E-1-11-11-4444-4444---------------------1111-1111-4444-4444------------------|

PART5
G-------------|
D-------------|
A----3~-8~-1~-|
E-4~----------|

PART6                                   2X
G-----------------------------------------|
D-----------------------------------------|
A-----------3333-3333-4444-4444-4444-4444-|
E-4444-4444-------------------------------|

REPEAT PART5
REPEAT PART6 TILL FINISH

FINISH
G------------------------|
D------------------------|
A-----------3333-3333-4~-|
E-4444-4444--------------|

thats it i guess.. =)
  xxSID
Suggest correction
Creating personal tab
Creating personal tab
You can edit any tab online and save it as your Personal.

You can edit, replace or remove any tab part or add personal notes – all changes will be seen only by you.

Personal tabs can be accessed anytime from any device, even offline.
Learn more »
Give kudos to tab author, rate the tab!
1 2 3 4 5
comments
print report bad tab
guest
You may want to rate the tab now too:
select rating
Wanna post a correction for this tab? Suggest correction