Oops, an error
Loading. Please wait.

Wishful Thinking tab

8,239 views 1 this week
2 commentsread comments
1 2 3 4 5
1 last vote to show rating
add to favorites
×
Save as Personal and add changes to this tab that will be seen only by you. Learn more ›
×
You can save this tab as Personal to edit and correct it or add notes. All changes will be seen only by you. Learn more »
launch autoscroll
font size
0
reset
how to read this tab
guitar tuner
edit
Autoscroll
slow
fast
+/-
esc
set tempo
stop
Author
  ditty bops official website :  http://www.thedittybops.com/

This is probably not 100% accurate but I will correct it later on so..
INTRO
  |-------0----------2------2---------------------|
  |---0-2--2-----2<4--4>2-4---4>2---5-------------|
  |-1--------3------------4-------4--------4------|
  |-2--------4------------4------------4<6---6>4--|IMMEDIATELY GO TO VERSE
  |------------4----------2-----------------------|
  |-0--------2------------------------------------|

VERSE
 |-------------------------------------------------------------------------|
 |---0---0---0---0------2---2---2---2------4---4---4---4---0---0---0---4---|
 |----1---1---1---1------3---3---3---3------4---4---2---2---1---1---1---4--|
 |---2---2---2---2-2----4---4---4---4-4----4-4-4---4-4-4---2---2---2---4---| X2
 |-----2-------2----------4-------4------2-------2-----------2-------2-----|
 |-0-------0----------2-------2--------------------------0-------0---------|

(BUT THE SECOND TIME DO NOT PLAY THE VERY LAST BIT (444) BUT PLAY THE BIT BEFORE INSTEAD 
IF THAT MAKES NO SENSE LISTEN TO THE SONG AND YOU'LL UNDERSTAND (HOPEFULLY))

CHORUS
 |-------------------------------------------------------------------------|
 |---4---4---4---4---0---0---0---0---4---4---4---4---0---0---0---0---4---4-|
 |---4---4---4---4---1---1---1---1---4---4---4---4---1---1---1---1---4---4-|
 |---4-4-4---4-4-4---2---2---2---2---4-4-4---4-4-4---2---2---2---2---4-4-4-|
 |-2-------2-----------2-------2---2-------2-----------2-------2---2-------|
 |-----------------0-------0-----------------------0-------0---------------|

 |-------------------------------------------------------------------------|
 |---4---4---0-------0------2-------1---1---0---0---0---0------------------|
 |---4---4---1-------1------2-------2---2---1---1---1---1------------------|
 |---4-4-4---2---2---0------2---2---2-2-2---2---2---2---2------------------|
 |-2----------------------0-------0-----------2-------2--------------------|
 |---------0-0-----0-0-------------------0-------0-------------------------|

      ~~VERSE~~

CHORUS
 |------------------------------------------------------------------------|
 |---4---4---4---4--------------------------5-3----4---4---4---4----------|
 |---4---4---4---4-------7------------------4-4----4---4---4---4---9-7/9--|
 |---4-4-4---4-4-4---7/9---9>7>5-5/7-7-5-----------4-4-4---4-4-4----------|
 |-2-------2-----------------------------7-------2-------2---------7-5/7--|
 |-----------------0---------------------------------------------0--------|

 |-------------------------------------------------------------0----------|
 |------------4---4---4---4---0------0---2-------1---1---0---0-0----------|
 |-3/4-3/4----4---4---2---2---1------1---2-------2---2---1---1-1----------|
 |------------4-4-4---4-4-4---2--2---0---2---2---2-2-2---2---2-2----------|
 |-1/2-1/2--2-------2------------------0-------0-----------2---2----------|
 |--------------------------0-0----0-0-----------------0-------0----------|

ENDING
 |-0---0---0---2-------------------------|
 |-2---1---0---2--------2---2---4---4----|
 |-2---2---1---3--------2---2---4---2----|   E13...     Emaj.
 |-2---2---2---4--------4---4---4-4-4----|
 |-0---0---2---4----------4---2----------|
 |---------0---2------2------------------|


  Chords!
E
Why does blood turn brown when it dries
Gb
Why do the tears well up in your eyes
Cb
Why didn't I learn to ride my bike
E                                    Cb
When it was warm and sunny outside

E
Why can't little kids tie their shoes
Gb
Why can't the white people play the blues
Cb
Why can't I fall in love with you
E
It must be because of the seasons

Cb                                            E
When the leaves start falling from the trees
Cb                                            E
When the birds start flirting with the bees
Cb                                    E           E13
When the wind starts blowing from the East to the West
A                    Aminor                E
Maybe you'll be the one that I like best

E
Clouds start forming I can't complain
Gb
'Cause I think we might be in need of some rain
Cb
When it starts pouring
                        E        Cb
Don't hide away without me

E
I bought an umbrella big enough for two
Gb
But it feels pretty empty under here without you
Cb
Dry as a bone but I'm still alone
E
I'm so gray

Cb                                          E
When you're standing in a puddle with wet feet
Cb                                             E    E13
And your head is sore from pounding drops of sleet
Cb                                        E          E13
When the cold and lonely hours put your heart to the test
A                  Aminor               E
Maybe I'll be the one that you like best

       A                 Aminor
If the sky can open its eyes
     E                 Gb
And cry from up above
      Gbminor               Cb
Let's shed some tears of joy
              E13   E
And fall in love

ANY CORRECTIONS OR STUFF YOU WANNA SAY EMAIL ME AT CRG_93@hotmai.co.uk!

            
            
Suggest correction
Creating personal tab
Creating personal tab
You can edit any tab online and save it as your Personal.

You can edit, replace or remove any tab part or add personal notes – all changes will be seen only by you.

Personal tabs can be accessed anytime from any device, even offline.
Learn more »
Give kudos to tab author, rate the tab!
1 2 3 4 5
comments
print report bad tab
2 comments total.
0 reply
noguitarheroyet 61 Feb 01, 2008 08:01 AM

What's Cb? how is that played?

0 reply
ShiversTheNinja 89 Jun 29, 2010 09:53 AM

noguitarheroyet: Cb is just B. Not sure why it's written as Cb, it's kind of silly.

These chords are good, I'm just having trouble with "E13". I play ukulele and I can't seem to find an equivalent chord... can anybody offer a plain old chord (maybe a 7, or a sus or whatever) that sounds similar enough? This is the first time I've ever run across "E13".

guest
You may want to rate the tab now too:
select rating
Wanna post a correction for this tab? Suggest correction