Oops, an error
Loading. Please wait.

The Light Of Day Chords

70 views 1 this week
3 commentsread comments
1 2 3 4 5
1 last vote to show rating
add to favorites
launch autoscroll
font size
0
reset
transpose
0
reset
simplify chords
display chords
guitar tuner
Autoscroll
slow
fast
+/-
esc
set tempo
stop
Help us to improve Ultimate-Guitar.com Take our survey!
×
Author
https://www.youtube.com/watch?v=T4Y3iTJtzgM

[Intro]
  F                          G 
e--------------------------|---------------------------|
B--10---------------10-----|--12----------------12-----|
G-----10---------10----10--|-----12----------12----12--|
D--------10---10-----------|--------12----12-----------|
A-----------8--------------|-----------10--------------|
E--------------------------|---------------------------|

  C                   Fadd9-
e--8------------8---|--8----------------8-----|
B----8--------8---8-|----10----------10---10--|
G------9----9-------|-------11----11----------|
D--------10---------|----------10-------------|
A-------------------|-------------------------|
E-------------------|-------------------------|

[Verse]
  C                     Em      F
I found a photograph of you and me
Am7                        Em     G
Drinking sangria somewhere by the sea
C                                Em            F
There's laughter in our eyes and dreams in our hearts
Am7                      Em          G
Before life waded in and tore it all apart


[Chorus]
             G       C       Em   F
When there's no more lies to hide behind
            C        G    
And no more tears to cry I know we'll be alright
                       G     C         Em       F
'Cause even though the skies above are cold and grey
                  C       F       C        G
I'm sure tomorrow we will see the light of day


[Verse]
  C                         Em      F
I found some letters from a happier time
Am7                             Em          G
I smelled the scented pages and re-read the lines
C                          Em            F
Why must the summer always turn into the fall?
Am7                      Em              G
Why must we lose love to ever know love at all?


[Chorus]
             G       C       Em   F
When there's no more lies to hide behind
            C        G    
And no more tears to cry I know we'll be alright
                       G     C         Em       F
'Cause even though the skies above are cold and grey
                  C       F       C        G
I'm sure tomorrow we will see the light of day


[Bridge]
  
  F                          G 
  The light of day           shining 
e--------------------------|---------------------------|
B--10---------------10-----|--12----------------12-----|
G-----10---------10----10--|-----12----------12----12--|
D--------10---10-----------|--------12----12-----------|
A-----------8--------------|-----------10--------------|
E--------------------------|---------------------------|

  C                   Fadd9-
  through               our window pane
e--8------------8---|--8----------------8-----|
B----8--------8---8-|----10----------10---10--|
G------9----9-------|-------11----11----------|
D--------10---------|----------10-------------|
A-------------------|-------------------------|
E-------------------|-------------------------|

C Em F F Am7 C Em G
C Em F F Am7 C Em G


[Chorus]
             G       C       Em   F
When there's no more lies to hide behind
            C        G    
And no more tears to cry I know we'll be alright
                       G     C         Em       F
'Cause even though the skies above are cold and grey
                  C       F       C        G
I'm sure tomorrow we will see the light of day
             G       C       Em   F
When there's no more lies to hide behind
            C        G    
And no more tears to cry I know we'll be alright
                       G     C         Em       F
'Cause even though the skies above are cold and grey
                  C       F       C        G
I'm sure tomorrow we will see the light of day
Suggest correction
Give kudos to tab author, rate the tab!
1 2 3 4 5
comments
print report bad tab
3 comments total.
+1 reply
guillermopeitto 4,805 Aug 29, 2016 04:15 PM

Great song, great work

+1 reply
delb0y1967 3,590 Sep 03, 2016 08:50 AM

Excellent tab Ben. You are an accurate and careful tabber and a 5 star performer here on UG, well done mate :)

0 reply
schoben 2,628 Sep 03, 2016 09:03 AM

Thank you very much, del!!

guest
You may want to rate the tab now too:
select rating
Wanna post a correction for this tab? Suggest correction