Oops, an error
Loading. Please wait.

Beards tab

9,146 views 1 this week
2 commentsread comments
1 2 3 4 5
x 4
add to favorites
×
Save as Personal and add changes to this tab that will be seen only by you. Learn more ›
×
You can save this tab as Personal to edit and correct it or add notes. All changes will be seen only by you. Learn more »
launch autoscroll
font size
0
reset
how to read this tab
guitar tuner
edit
Autoscroll
slow
fast
+/-
esc
set tempo
stop
Author
Difficulty
So I tabbed out the different parts of the song, just put the pieces together and have fun.
Its an easy one.
Thanks,

Jake Miller

You can hide behind it
e|-----------------------------------------------------|
B|-----3---3------3---3-------3---3-------3---3--------|
G|-----4---4-0----4---4-------4---4-0-----4---4--------|
D|-5-----------4----------5-----------4----------------|
A|-----------------------------------------------------|
E|-----------------------------------------------------|

You can wear it how you like I know you
e|-----------------------------------------------------|
B|-----1---1-------1---1-------1---1-------1---1-------|
G|-----0---0-------0---0-------2---2-------0---0-------|
D|-----------0-----------0-----------0-----------------|
A|-3-----------2-----------0-----------2---------------|
E|-----------------------------------------------------|

Will
e|-----------------------------------------------------|
B|-----3---3------3---3-------3---3-------3---3--------|
G|-----4---4-0----4---4-------4---4-0-----4---4--------|
D|-5-----------4----------5-----------4----------------|
A|-----------------------------------------------------|
E|-----------------------------------------------------|

Grow it out until it comes to 
e|-----------------------------------------------------|
B|-----5---5-------5---5-------3---3-------3---3-------|
G|-----5---5-------5---5-------5---5-------5---5-------|
D|-7-----------7---------------------------------------|
A|-------------------------5-----------5---------------|
E|-----------------------------------------------------|

Standing still
e|-----------------------------------------------------|
B|-----3---3------3---3-------3---3-------3---3--------|
G|-----4---4-0----4---4-------4---4-0-----4---4--------|
D|-5-----------4----------5-----------4----------------|
A|-----------------------------------------------------|
E|-----------------------------------------------------|

            
            
Suggest correction
Creating personal tab
Creating personal tab
You can edit any tab online and save it as your Personal.

You can edit, replace or remove any tab part or add personal notes – all changes will be seen only by you.

Personal tabs can be accessed anytime from any device, even offline.
Learn more »
comments
print report bad tab
2 comments total.
0 reply
Xer0 1993 10 Jan 22, 2010 02:37 PM

nice job with this one, i needed help when meric starts to sing in a higher tone, thanx

0 reply
kksproat17 10 Apr 02, 2010 04:30 PM

"You can wear it how you like I know you" then back into the verse

i think that it sounds better like this but idk its good though thanks a lot :D

e|-----------------------------------------------------|
B|---------------------------------------------------3-|
G|-----0---0-------0---0------0---0------0---0-------4-|
D|-----2---2-------2---2------2---2------2---2----5----|
A|-3-----------2-----------0----------2----------------|
E|-----------------------------------------------------|

guest
You may want to rate the tab now too:
select rating
Wanna post a correction for this tab? Suggest correction