Oops, an error
Loading. Please wait.

Dolphin Center tab

352 views 9 this week
1 commentread comment
1 2 3 4 5
x 3
add to favorites
×
Save as Personal and add changes to this tab that will be seen only by you. Learn more ›
×
You can save this tab as Personal to edit and correct it or add notes. All changes will be seen only by you. Learn more »
launch autoscroll
font size
0
reset
how to read this tab
guitar tuner
edit
Autoscroll
slow
fast
+/-
esc
set tempo
stop
Author
Difficulty
Dolphin Center Tab by the Donkeys

This is an incredible song with one of my favorite guitar solos ever. Completely underrated band. 

The Intro and Verse Chords are: Am C G F

The Chorus chords are: C G F

There is a slight variation in the chord progression during the slowly, I listed it below.

Intro (on top of piano)

E||-----------------------------------------|
B||-----------------------------------------|
G||-----7b(hold)-5-4h5-5p4------------------|
D||-5h7--------------------7----------------| 
A||-----------------------------------------|
E||-----------------------------------------|

E||-------------------------------------------------------------|
B||-------------------------------------------------------------|
G||-----------------5-------------------------------------------|
D||-----5-7-7-7-5-7---7-7-5h7-5---------------5-5h7-5h7---------| 
A||-5h7-------------------------7-5h7-5-3-5h7-----------5h7-5-3-|
E||-------------------------------------------------------------|

E||----8-----------------------------------------|
B||------8---------------------------------------|
G||-7b^----7db-7-7-5-7-----5-7-5-7-5-7-5-7—5h7-5-|
D||--------------------5h7-----------------------| 
A||----------------------------------------------|
E||----------------------------------------------|

E||-------------------------------------|
B||-------------------------------------|
G||-7p5-7p5-7p5-7p5-7p5-7-5-------------|
D||-------------------------7-----------| 
A||-------------------------------------|
E||-------------------------------------|

Note: They do a bunch of little licks and fills during the verse that you can
screw around with on that A minor pentatonic scale

Solo (3:04)

The rhythm chords for the solo go the same as the verse from its beginning until about 3:35.

And then it switches to this for a moment

F Am F Am F G C Dthingy (x20010) F 

(F holds for the duration of the fast part like 4:02-4:20)

Than it goes back to the chorus and finishes the song

E||-----------------------------------------|
B||------------------8-8--------------------|
G||-7-5-7--7-5-7-7/9-----9-7-5--------------|
D||-----------------------------------------| 
A||-----------------------------------------|
E||-----------------------------------------|

E||-------------------------------------------|
B||-------------------------------------------|
G||-7-5-7-5-7-5-7-5-7-5-7-5-------5-----------|
D||-------------------------7-5h7---7-5h7-5---| 
A||-----------------------------------------7-|
E||-------------------------------------------|

E||----------------------8------------------------------------------|
B||------------------------8-------6-5---6-5------------------------|
G||-----------------5-7b-----7db-5-----------------------5-7-5-5h7/9|
D||-----5-7-7-5h7-7--------------------7-----7-5-5h7-5-7------------| 
A||-5h7-------------------------------------------------------------|
E||-----------------------------------------------------------------|

E||-----------------------------------------|
B||-------13-15-13--------------------------|
G||-12/14----------14--14-14-14-14-14-12-10-|
D||-----------------------------------------| 
A||-----------------------------------------|
E||-----------------------------------------|

E||--------------------------------------------12----12----12|
B||----------------------------------13-13-/15----15----15---|
G||-9-12-9-12-9-12-9-12-9-12-9-12/14-------------------------|
D||----------------------------------------------------------| 
A||----------------------------------------------------------|
E||----------------------------------------------------------|


E||----12-12-12-12-12-12-12-12-12-------12----12----12----------|
B||-15----------------------------15-12----15----15----15-13----|
G||----------------------------------------------------------14-|
D||-------------------------------------------------------------| 
A||-------------------------------------------------------------|
E||-------------------------------------------------------------|


E||-------------------------------------------------------|
B||-------------------------------------------------------|
G||-------------12----------------------------------12-14-|
D||-------12-14----14----------12-14-15----12-14-15-------| 
A||-12-15-------------12-14-15----------15----------------|
E||-------------------------------------------------------|

This is the part where he strums really fast, for this section only you’ll have to 
just listen to the song and strum as fast as you can. I’m only going to put each note that he is strumming. 

E||-----------------------------------------|
B||-13-15-17-18-20-22--22-20-18-17-15-13----|
G||-----------------------------------------|
D||-----------------------------------------| 
A||-----------------------------------------|
E||-----------------------------------------|

E||-------------------------------------------------|
B||-------------------------------------------------|
G||-10/12-14-14-12-10/12-14-14-12-10/12-14-14-12----|
D||----------------------------------------------14-| 
A||-------------------------------------------------|
E||-------------------------------------------------|

E||----------------------------------------------------|
B||----------------------------15-13-------------------|
G||-------12-12-14-14-12-12-14-------14-12-14-14-12----|
D||-12h14-------------------------------------------14-| 
A||----------------------------------------------------|
E||----------------------------------------------------|

E||-----20---------20----------------------------|
B||--------20---------20-------------------------|
G||-19b-------19db-------19p17-19-17-17----17----|
D||-------------------------------------19----19-| 
A||----------------------------------------------|
E||----------------------------------------------|

E||-----------------------------------------|
B||-----------------------------------------|
G||--17-19-19-17-19b------------------------|
D||-----------------------------------------| 
A||-----------------------------------------|
E||-----------------------------------------|

Let me know if you see any mistakes. Some parts like the 19p17 in the second to last bracket is played very
lightly but I still think you can hear it and if not it still sounds good. 
Suggest correction
Creating personal tab
Creating personal tab
You can edit any tab online and save it as your Personal.

You can edit, replace or remove any tab part or add personal notes – all changes will be seen only by you.

Personal tabs can be accessed anytime from any device, even offline.
Learn more »
Give kudos to tab author, rate the tab!
1 2 3 4 5
comments
print report bad tab
1 comment total.
0 reply
THL22 1,194 Oct 08, 2015 07:55 AM

This is so perfect!!!! I've been waiting for gold like this!!

guest
You may want to rate the tab now too:
select rating
Wanna post a correction for this tab? Suggest correction