Oops, an error
Loading. Please wait.

Shines Acoustic tab

250 views 3 this week
1 commentread comment
1 2 3 4 5
x 3
add to favorites
×
Save as Personal and add changes to this tab that will be seen only by you. Learn more ›
×
You can save this tab as Personal to edit and correct it or add notes. All changes will be seen only by you. Learn more »
launch autoscroll
font size
0
reset
how to read this tab
guitar tuner
edit
Autoscroll
slow
fast
+/-
esc
set tempo
stop
Author
Difficulty
https://www.youtube.com/watch?v=EXpQZIA2tZs

[Intro/Verse/Chorus]

e|---------------------------------------------------------------------------|
B|---------------------------------------------------------------------------|
G|7h9--7h9--7h9-7---------7--------------------------------------------------|
D|----------------9-7-7h9-----7h9--9--7/5-5-2-0-2-0-2-5-2-0------------------|
A|----------------------------------------------------------2-0--------------|
E|--------------------------------------------------------------3-0----------|


[Rhythm] (*These are all bar chords. Refer to the video to see how it's done)
  
   C#sus4      C#      B
e|---9---------9-------7-----------------------------------------------------|
B|---9---------9-------7-----------------------------------------------------|
G|---11--------10------8-----------------------------------------------------|
D|---11--------11------9-----------------------------------------------------|
A|---9---------11------9-----------------------------------------------------|
E|---9---------9-------7-----------------------------------------------------|


[Outro]

e|------0-7--7------------0-7--7-----------0-7--7-----7-------10---|
B|----8--------8--------8--------8-------8--------8-----8---8---10-|
G|7h9------------9--7h9------------9-7h9------------9-----9--------|
D|-----------------------------------------------------------------|
A|-----------------------------------------------------------------|
E|-----------------------------------------------------------------|

e|------0-7--7------------0-7--7-----------0-7--7-----7-------|
B|----8--------8--------8--------8-------8--------8-----8---8-|
G|7h9------------9--7h9------------9-7h9------------9-----9---|
A|------------------------------------------------------------|
E|------------------------------------------------------------|

e|------------------------------------------------------------------|
B|------------------------------------------------------------------|
G|7h9--7h9--7h9-7---------7-----------------------------------------|
D|----------------9-7-7h9-----7h9--9--7/5-5-2-0-2-0-2-5-2-0---------|
A|----------------------------------------------------------2-0-----|
E|--------------------------------------------------------------3-0-|

[End] (Strum down)
     
  Dsus2sus4     
e|----0----| 
B|----8----|
G|----9----|
D|----0----|
A|----X----|
E|----X----|


************************************

| h   Hammer-on
| /   Slide up

************************************

            
            
Suggest correction
Creating personal tab
Creating personal tab
You can edit any tab online and save it as your Personal.

You can edit, replace or remove any tab part or add personal notes – all changes will be seen only by you.

Personal tabs can be accessed anytime from any device, even offline.
Learn more »
Give kudos to tab author, rate the tab!
1 2 3 4 5
comments
print report bad tab
1 comment total.
0 reply
joshuajkramer 207 Feb 10, 2017 11:11 PM

The tab is definitely right, but the first chord is definitely played like this

e|---9----|
B|---11---|
G|---11---|
D|---11---|
A|---9----|
E|---9----|

guest
You may want to rate the tab now too:
select rating
Wanna post a correction for this tab? Suggest correction