Oops, an error
Loading. Please wait.

I Dont Want To Know bass

664 views 1 this week
no commentswrite comment
1 2 3 4 5
3 more votes to show rating
add to favorites
×
Save as Personal and add changes to this tab that will be seen only by you. Learn more ›
×
You can save this tab as Personal to edit and correct it or add notes. All changes will be seen only by you. Learn more »
launch autoscroll
font size
0
reset
guitar tuner
edit
Autoscroll
slow
fast
+/-
esc
set tempo
stop
Author
Difficulty
-----------------------------------------------------------------------------
		      I Dont Wanna Know - THE DONNAS 
-----------------------------------------------------------------------------
Tabbed By: Nicholas Bradley
Comments: This is the first bass tab Ive ever done...damn Im good.

intro: Guitar&Drums 2 Bars

Bass Intro:

G|-----------------------------------|--------------------------------------|
D|-----------------------------------|--------------------------------------|
A|-----------------------------------|--------------------------------------|
E|-6-6-6-6-6-6-6-6-6-6-6-6-6-6-6-6---|-6-6-6-6-6-6-6-6-6-6-6-6-6-6-6-6------|


Verse 1:
  I     know where you live yeah       and I   I wanna live there too
G|-----------------------------------|--------------------------------------|
D|-----------------------------------|--------------------------------------|
A|-----------------------------------|--------------------------------------|
E|-6-6-6-6-6-6-6-6-6-6-6-6-6-6-6-6---|-6-6-6-6-6-6-6-6-6-6-6-6-6-6-6-6------|


  I drive by almost every day            its not really even on my way
G|------------------------------------|-------------------------------------|
D|------------------------------------|-------------------------------------|
A|-------------4-4-4-4-4-4-4-4-4-4-4-4|-------------4-4-4-4-4-4-4-4-4-4-4-4-|
E|-6-6-6-4-4-4------------------------|-6-6-6-4-4-4-------------------------|


  when am I                 gonna get to   see you
G|-----------------------------------|--------------------------------------|
D|-----------------------------------|--------------------------------------|
A|-----------------------------------|-------------4-4-4-4-4-4-4-4-4-4-4-4--|
E|-6-6-6-6-6-6-6-6-6-6-6-6-6-6-6-6---|-6-6-6-4-4-4--------------------------|

PreChorus:

   I wont be misunderstood             it wont do you any good
G|-----------------------------------|--------------------------------------|
D|-----------------------------------|--------------------------------------|
A|-----------------------------------|-2-2-2-2-2-2-2-2-2-2-2-2-2-2-2-2------|
E|-2-2-2-2-2-2-2-2-2-2-2-2-2-2-2-2---|--------------------------------------|



   think Im not the one you could      when I know that you would
G|-----------------------------------|--------------------------------------|
D|-----------------------------------|--------------------------------------|
A|-7-7-7-7-7-7-7-7-7-7-7-7-7-7-7-7---|--------------------------------------|
E|-----------------------------------|-1-1-1-1-1-1-1-1-1-1-1-1-1-1-1-1------|

Chorus:

   I              dont want to know if you dont want me no
G|------------------------------------|-------------------------------------|
D|------------------------------------|-------------------------------------|
A|-------------4-4-4-4-4-4-4-4-4h6-6-6|-------------4-4-4-4-4-4-4-4-4h6-6-6-|
E|-6-6-6-4-4-4------------------------|-6-6-6-4-4-4-------------------------|


   I              dont want to know if you dont want me no
G|------------------------------------|-------------------------------------|
D|------------------------------------|-------------------------------------|
A|-------------4-4-4-4-4-4-4-4-4h6-6-6|-------------6-----------------------|
E|-6-6-6-4-4-4------------------------|-6-----4-----------------------------|

Guitar&Drums 2 Bars

G|-----------------------------------|--------------------------------------|
D|-----------------------------------|--------------------------------------|
A|-----------------------------------|--------------------------------------|
E|-6-6-6-6-6-6-6-6-6-6-6-6-6-6-6-6---|-6-6-6-6-6-6-6-6-6-6-6-6-6-6-6-6------|


Verse 2:

I have a shirt that belongs to you   I use it to guess all the things you do
G|-----------------------------------|--------------------------------------|
D|-----------------------------------|--------------------------------------|
A|-----------------------------------|--------------------------------------|
E|-6-6-6-6-6-6-6-6-6-6-6-6-6-6-6-6---|-6-6-6-6-6-6-6-6-6-6-6-6-6-6-6-6------|


     Ive already met your mom and dad     said Im the best one you never had
G|------------------------------------|-------------------------------------|
D|------------------------------------|-------------------------------------|
A|-------------4-4-4-4-4-4-4-4-4-4-4-4|-------------4-4-4-4-4-4-4-4-4-4-4-4-|
E|-6-6-6-4-4-4------------------------|-6-6-6-4-4-4-------------------------|


   and I                 think you should really reconsider
G|-----------------------------------|--------------------------------------|
D|-----------------------------------|--------------------------------------|
A|-----------------------------------|-------------4-4-4-4-4-4-4-4-4-4-4-4--|
E|-6-6-6-6-6-6-6-6-6-6-6-6-6-6-6-6---|-6-6-6-4-4-4--------------------------|

PreChorus:

   I wont be misunderstood               it wont do you any good
G|-----------------------------------|--------------------------------------|
D|-----------------------------------|--------------------------------------|
A|-----------------------------------|-2-2-2-2-2-2-2-2-2-2-2-2-2-2-2-2------|
E|-2-2-2-2-2-2-2-2-2-2-2-2-2-2-2-2---|--------------------------------------|


   think Im not the one you could          when I know that you would
G|-----------------------------------|--------------------------------------|
D|-----------------------------------|--------------------------------------|
A|-7-7-7-7-7-7-7-7-7-7-7-7-7-7-7-7---|--------------------------------------|
E|-----------------------------------|-1-1-1-1-1-1-1-1-1-1-1-1-1-1-1-1------|

Chorus:

   I              dont want to know if you dont want me no
G|------------------------------------|-------------------------------------|
D|------------------------------------|-------------------------------------|
A|-------------4-4-4-4-4-4-4-4-4h6-6-6|-------------4-4-4-4-4-4-4-4-4h6-6-6-|
E|-6-6-6-4-4-4------------------------|-6-6-6-4-4-4-------------------------|

   I              dont want to know if you dont want me no
G|------------------------------------|-------------------------------------|
D|------------------------------------|-------------------------------------|
A|-------------4-4-4-4-4-4-4-4-4h6-6-6|-------------6-----------------------|
E|-6-6-6-4-4-4------------------------|-6-----4-----------------------------|


Solo:

G|------------------------------------|-------------------------------------|
D|------------------------------------|-------------------------------------|
A|-------------4-4-4-4-4-4-4-4-4-4-4-4|-------------4-4-4-4-4-4-4-4-4-4-4-4-|
E|-6-6-6-4-4-4------------------------|-6-6-6-4-4-4-------------------------|

G|------------------------------------|-------------------------------------|
D|------------------------------------|-------------------------------------|
A|-------------4-4-4-4-4-4-4-4-4-4-4-4|-------------4-4-4-4-4-4-4-4-4-4-4-4-|
E|-6-6-6-4-4-4------------------------|-6-6-6-4-4-4-------------------------|

G|------------------------------------|-------------------------------------|
D|------------------------------------|-------------------------------------|
A|-------------4-4-4-4-4-4-4-4-4-4-4-4|-------------6-----------------------|
E|-6-6-6-4-4-4------------------------|-6-----4-----------------------------|

Drums, guitar and vocals 2 Bars:

  I               watched you through the window last night
  and I            thought I saw a girl in the candle light

Verse 3:

  you think thats fair after all Ive done, restraining orders one by one
G|------------------------------------|-------------------------------------|
D|------------------------------------|-------------------------------------|
A|-------------4-4-4-4-4-4-4-4-4-4-4-4|-------------4-4-4-4-4-4-4-4-4-4-4-4-|
E|-6-6-6-4-4-4------------------------|-6-6-6-4-4-4-------------------------|


  and I            sure hope that was your sister
G|-----------------------------------|--------------------------------------|
D|-----------------------------------|--------------------------------------|
A|-----------------------------------|-------------4-4-4-4-4-4-4-4-4-4-4-4--|
E|-6-6-6-6-6-6-6-6-6-6-6-6-6-6-6-6---|-6-6-6-4-4-4--------------------------|

PreChorus:
  I guess you misunderstood            didnt do you any good
G|-----------------------------------|--------------------------------------|
D|-----------------------------------|--------------------------------------|
A|-----------------------------------|-2-2-2-2-2-2-2-2-2-2-2-2-2-2-2-2------|
E|-2-2-2-2-2-2-2-2-2-2-2-2-2-2-2-2---|--------------------------------------|


 
  bet you thought I never could       now you know that I would
G|-----------------------------------|--------------------------------------|
D|-----------------------------------|--------------------------------------|
A|-7-7-7-7-7-7-7-7-7-7-7-7-7-7-7-7---|--------------------------------------|
E|-----------------------------------|-1-1-1-1-1-1-1-1-1-1-1-1-1-1-1-1------|


  now you know that I would           now you know that I would
G|-----------------------------------|--------------------------------------|
D|-----------------------------------|--------------------------------------|
A|-----------------------------------|--------------------------------------|
E|-1-1-1-1-1-1-1-1-1-1-1-1-1-1-1-1---|-1-1-1-1-1-1-1-1-1-1-1-1-1-1-1-1------|

Chorus:


   I              dont want to know if you dont want me no
G|------------------------------------|-------------------------------------|
D|------------------------------------|-------------------------------------|
A|-------------4-4-4-4-4-4-4-4-4h6-6-6|-------------4-4-4-4-4-4-4-4-4h6-6-6-|
E|-6-6-6-4-4-4------------------------|-6-6-6-4-4-4-------------------------|


   I              dont want to know if you dont want me no
G|------------------------------------|-------------------------------------|
D|------------------------------------|-------------------------------------|
A|-------------4-4-4-4-4-4-4-4-4h6-6-6|-------------6-6-6-6-6-6-6-6-6-6-6-6-|
E|-6-6-6-4-4-4------------------------|-6-6-6-4-4-4-------------------------|


   I              dont want to know if you dont want me no
G|------------------------------------|-------------------------------------|
D|------------------------------------|-------------------------------------|
A|-------------4-4-4-4-4-4-4-4-4h6-6-6|-------------4-4-4-4-4-4-4-4-4h6-6-6-|
E|-6-6-6-4-4-4------------------------|-6-6-6-4-4-4-------------------------|


   I              dont want to know if you dont want me no
G|------------------------------------|-------------------------------------|
D|------------------------------------|-------------------------------------|
A|-------------4-4-4-4-4-4-4-4-4h6-6-6|-------------6-----------------------|
E|-6-6-6-4-4-4------------------------|-6-----4-----------------------------|



| /  slide up
| \  slide down
| h  hammer-on
| p  pull-off
| ~  vibrato
| +  harmonic
| x  Mute note
| () Let Ring
=============================================================================

            
            
Suggest correction
Creating personal tab
Creating personal tab
You can edit any tab online and save it as your Personal.

You can edit, replace or remove any tab part or add personal notes – all changes will be seen only by you.

Personal tabs can be accessed anytime from any device, even offline.
Learn more »
Give kudos to tab author, rate the tab!
1 2 3 4 5
comments
print report bad tab
guest
You may want to rate the tab now too:
select rating
Wanna post a correction for this tab? Suggest correction