Oops, an error
Loading. Please wait.

Pills And Coffee Tab

2,541 views 33 this week
no commentswrite comment
1 2 3 4 5
excellent!
x 4
add to favorites
launch autoscroll
font size
0
reset
how to read this tab
guitar tuner
Tab Pro tools
  • play this tab
  • loop segment
  • change instrument
  • show fretboard
  • metronome
Autoscroll
slow
fast
+/-
esc
set tempo
stop
Difficulty
Tuning
novice
D# G# C# F# A# D#
Tabbed by Adrian Mora

    PART I
e|---------------------------------------------3---3---------|
b|---------------------------------------------3---3---------|
g|--------0--2---------------------------------0---0---------|
d|------0----3------0--2---(x3)--------2--0----0-------------|
a|----------------0----3------------3----------2-------------|
e|-------------------------------------------3-3--3-3--------|

e|---------------------------------------------3---3---3-----|
b|---------------------------------------------3---3---3-----|
g|--------0--2---------------------------------0---0---0-----|
d|------0----3------0--2---(x3)--------2--0----0-------------|
a|----------------0----3------------3----------2-------------|
e|-------------------------------------------3-3--3-3-3-3----|

    PART II
e|---------------0-0-----------------3--3--------------------|
b|-----3--4p3-1--1-1----1--3p1-0-----3--3--------------------|
g|---------------0-0-----------------0--0--------------------|
d|-----3------2--2--2---1------0-----0---------(x2)----------|
a|---------------0-------------------2-----------------------|
e|---------------------------------3-3-3-3-------------------|
comments
print report bad tab
I want to post or [tab]
guest
You may want to rate the tab now too:
select rating
Please do not post tabs as comments. Select "correction" instead!