Oops, an error
Loading. Please wait.

Ascend intro tab

3,770 views 420 this week
6 commentsread comments
1 2 3 4 5
x 12
add to favorites
×
Save as Personal and add changes to this tab that will be seen only by you. Learn more ›
×
You can save this tab as Personal to edit and correct it or add notes. All changes will be seen only by you. Learn more »
launch autoscroll
font size
0
reset
how to read this tab
guitar tuner
edit
Autoscroll
slow
fast
+/-
esc
set tempo
stop
This isn't finished, it's just the intro from https://www.youtube.com/watch?v=IsOTFWf0AWU
Lead guitar is tuned to E flat
Rhythm guitar Drop C

eb|--7/9-------------7/9----------9/11--------------9/11----------------------|
Bb|------9~--------------9~------------11~---------------11~------------------|
Gb|-------------11-9---------------------------11-9---------------------------|
Db|---------------------------------------------------------------------------|
Ab|---------------------------------------------------------------------------|
Eb|---------------------------------------------------------------------------|

eb|--11h12----------------------------------------------------------------------|
Bb|--------9/12~--------------12------------------------------------------------|
Gb|------------------13-11-13----11\8~-------9/11\6~-----4-6-4-6-8-6-8-9-8-9-11-|
Db|-----------------------------------------------------------------------------|
Ab|-----------------------------------------------------------------------------|
Eb|-----------------------------------------------------------------------------|


************************************

| /   Slide up
| \   Slide down
| ~   Vibrato
| h   Hammer-on

************************************
Suggest correction
Creating personal tab
Creating personal tab
You can edit any tab online and save it as your Personal.

You can edit, replace or remove any tab part or add personal notes – all changes will be seen only by you.

Personal tabs can be accessed anytime from any device, even offline.
Learn more »
comments
print report bad tab
6 comments total. Showing first comments.
+2 reply
croftox56 10 May 17, 2017 08:07 PM

Thank you!!!! Is there going to be a full version? If you can please do it!!!

0 reply
bevanyk1 12 May 20, 2017 08:32 AM

just pointing this out he does not do the 11 9 part twice

+1 reply
undermyveins 10 Jul 03, 2017 08:59 PM, edited on July 4 2017, 01:00 am

Should be like thiseb|--7/9-------------7/9----------9/11--------------9/11-----------------Bb|------9~--------------9~------------9~---------------9~-------------Gb|-------------11-9---------------------------11-9----------------------Db|----------------------------------------------------------------------Ab|----------------------------------------------------------------------Eb|----------------------------------------------------------------------eb|--11h12---------------------------------------------------------------Bb|--------9/12~--------------12-----------------------------------------Gb|------------------13-11-13----11\8~-------9/11\6~-----4-6-4/6-8-6-8-9-8-9-11-|

guest
You may want to rate the tab now too:
select rating
Wanna post a correction for this tab? Suggest correction