Oops, an error
Loading. Please wait.

Been Down So Long Bass Tab

version 1
version 1

Whole song

Interactive

9,954 views 30 this week
1 commentread comment
1 2 3 4 5
please rate
add to favorites
launch autoscroll
font size
0
reset
guitar tuner
Tab Pro tools
  • play this tab
  • loop segment
  • change instrument
  • show fretboard
  • metronome
×
Best way to learn
"Been Down So Long"
Autoscroll
slow
fast
+/-
esc
set tempo
stop
Contributor
-------------------------------------------------------------------------------
			 BEEN DOWN SO LONG - The Doors
-------------------------------------------------------------------------------

Tabbed By : Etienne Delisle

Tuning: Standard


Bassline's kinda always the same except there are some variants. Just listen to 
the song to find them and improvise something
On guitar solos, just follow the form of the verse


(this riff is not present in the first verse)
G|---------------------------------------------------------------------------|
D|---------------------------------------------------------------------------|
A|---------------------------------------------------------------------------|
E|---0--0--0--0--0--0--0--0-3--0--0--0--0--0--0--0--0-3----------------------|

Well I've Been
Down  so  goddamn  long          That it looks like up to me
G|---------------------------------------------------------------------------|
D|---------------------------------------------------------------------------|
A|-------------------------------------5--7--5-------------------------------|
E|---0--0--0--0--0--0--0--0-3--0--0--7----------7--5-------------------------|


G|---------------------------------------------------------------------------|
D|---------------------------------------------------------------------------|
A|---------------------------------------------------------------------------|
E|---0--0--0--0--0--0--0--0-3--0--0--0--0--0--0--0--0-3----------------------|

Well I've been
Down so very damn long          That it looks like up to me
G|---------------------------------------------------------------------------|
D|---------------------------------------------------------------------------|
A|-----------------------------------5--7--5---------------------------------|
E|---5--5--5--5--5--5--3--4--5--5--7----------7--5---------------------------|


G|---------------------------------------------------------------------------|
D|---------------------------------------------------------------------------|
A|---------------------------------------------------------------------------|
E|---0--0--0--0--0--0--0--0-3--0--0--0--0--0--0--0--0-3----------------------|

Yeah, Why don't one you people     C'mon, and set me free
G|---------------------------------------------------------------------------|
D|---------------------------------------------------------------------------|
A|---2--2--2--2--2--2--2--2--0-----------------------------------------------|
E|---------------------------------------------------------------------------|

This is it.. don't mind the lyrics for the other verses

Outro :
     C'mon, C'mon, C'mon and set me free
G|--------------------------|
D|--------------------------|
A|--------------------------|
E|----7-7/---7-7/---7-7/----| Finish it the want you want it


| /  slide up
| \  slide down
| h  hammer-on
| p  pull-off
| ~  vibrato
| +  harmonic
| x  Mute note
comments
We did not receive enough feedback on this tab! Please rate:
print report bad tab
1 2 3 4 5
1 comment total.
0 reply
Wildmen wrote on January 8 2013, 08:34 am

Missed last bass riff, before outro.

I want to post or [tab]
guest
You may want to rate the tab now too:
select rating
Please do not post tabs as comments. Select "correction" instead!