Oops, an error
Loading. Please wait.

Been Down So Long Bass Tab

version 2
version 2

Whole song

Interactive

923 views 9 this week
no commentswrite comment
1 2 3 4 5
please rate
add to favorites
launch autoscroll
font size
0
reset
guitar tuner
Tab Pro tools
  • play this tab
  • loop segment
  • change instrument
  • show fretboard
  • metronome
×
Best way to learn
"Been Down So Long"
Autoscroll
slow
fast
+/-
esc
set tempo
stop
Contributor
Been Down So Long - The Doors
Bass Guitar Tab
Tabbed by: Craig McMinn/CraigWazHere
E-mail: weeman12345678910@hotmail.co.uk

This is my first ever tab and I'm welcome to any corrections as it was made 

by ear in just one night. It should be 90% accurate with the original song as 

some of the bass fills are possibly wrong. It still fits in with the 

structure and timing off the song however.

G|----------------|----------------|----------------|----------------|
D|----------------|----------------|----------------|----------------|
A|----------------|------5-7-5-----|----------------|----------------|
E|0-0-0-0-0-0-0-3-|0-0-7-------7-5-|0-0-0-0-0-0-0-3-|0-0-0-0-0-0-3-4-|

G|----------------|----------------|----------------|----------------|
D|----------------|----------------|----------------|----------------|
A|----------------|------5-7-5-----|----------------|------------0-1-|
E|5-5-5-5-5-5-5-3-|5-5-/7------7x5-|0-0-0-0-0-0-0-3-|0-0-0-0-0-0-----|

G|----------------|----------------|----------------|----------------|
D|----------------|----------------|----------------|----------------|
A|2-2-2-2-2-2-2-1-|0---------------|----------------|----------------|
E|----------------|----------------|0-0-0-0-0-0-0-3-|0-0-0-0-0-0-0-3-|

G|----------------|----------------|----------------|----------------|
D|----------------|----------------|----------------|----------------|
A|----------------|------5-7-5-----|----------------|----------------|
E|0-0-0-0-0-0-0-3-|0-0-/7------7x5-|0-0-0-0-0-0-0-3-|0-0-0-0-0-0-3-4-|

G|----------------|----------------|----------------|----------------|
D|----------------|----------------|----------------|----------------|
A|----------------|------5x7-5-----|----------------|------------0-1-|
E|5-5-5-5-5-5-5-3-|5-5-/7------7x5-|0-0-0-0-0-0-0-3-|0-0-0-0-0-0-----|

G|----------------|----------------|----------------|----------------|
D|----------------|----------------|----------------|----------------|
A|2-2-2-2-2-2-2-1-|0---------------|----------------|--------7-5-----|
E|----------------|----------------|0-0-0-0-0-0-0-3-|0-0-0-0-----7x5-|

G|----------------|----------------|----------------|----------------|
D|----------------|----------------|----------------|----------------|
A|----------------|------5-7-5-----|----------------|----------------|
E|0-0-0-0-0-0-3-4-|0-0-7-------7x5-|0-0-0-0-0-0-0-3-|0-0-0-0-0-0-3-4-|

G|----------------|----------------|----------------|----------------|
D|----------------|----------------|----------------|----------------|
A|----------------|------5x7-5-----|----------------|------------0-1-|
E|5-5-5-5-5-5-3-4-|5-5-/7------7x5-|0-0-0-0-0-0-0-3-|0-0-0-0-0-0-----|

G|----------------|----------------|----------------|----------------|
D|----------------|----------------|----------------|----------------|
A|2-2-2-2-2-2-2-1-|0---------------|----------------|---------/5-7x5-|
E|----------------|----------------|0-0-0-0-0-0-0-3-|0-0-0-0-0-------|

G|----------------|----------------|----------------|----------------|
D|----------------|----------------|----------------|----------------|
A|----------------|------5-7-7-----|----------------|----------------|
E|0-0-0-0-0-0-3-4-|0-0-/7------7x5-|0-0-0-0-0-0-0-3-|0-0-0-0-0-0-3-4-|

G|----------------|----------------|----------------|----------------|
D|----------------|----------------|----------------|----------------|
A|----------------|------5-7-5-----|----------------|------------0-1-|
E|5-5-5-5-5-5-3-4-|5-5-5x------7x5-|0-0-0-0-0-0-0-3-|0-0-0-0-0-0-----|

G|----------------|----------------|----------------|----------------|
D|----------------|----------------|----------------|----------------|
A|2-2-2-2-2-2-2x1-|0---------------|----------------|----------------|
E|----------------|----------------|0-0-0-0-0-0-0-3-|0-0-0-0-0-0-3-4-|

G|----------------|----------------|----------------|----------------|
D|----------------|----------------|----------------|----------------|
A|----------------|--------5x7-5x--|----------------|-----/6/6\--0-1-|
E|5-5-5-5-5-2-3-4-|5-5-6-7-------5-|0-0-0-0-0-0-5x3-|0-0-0-----0-----|

G|----------------|----------------|----------------|----------------|
D|-------------x2-|---------x2-----|----------------|----------------|
A|2-2-2-2-2-2x5---|0-0-2-3-5---5---|---------/6-6-6\|-----/6-6-6-6-6\|
E|----------------|-------------x3-|0-0-0-0-0-------|0-0-0-----------|

G|----------------|----------------|----------------|----------------|
D|----------------|----------------|----------------|----------------|
A|----------6-4x2-|-------57-5-----|-------------x5-|----------------|
E|0-0-0-0-0-------|0-0-0/7-----7x5-|0-0-0-0-0-0/7---|0-0-0-0-0-2-3-4-|

G|----------------|-----/779-7-----|----------------|----------------|
D|----------------|------------9x7-|----------------|----------------|
A|----------------|-/6/6-----------|---------/6-----|------------0-1-|
E|5-5-5-5-5-2-3-4-|5---------------|0-0-0-0-0---5x3-|0-0-0-0-0-0-----|

G|----------------|----------------|----------------|-------------0--|
D|----------------|----------------|----------------|--------------2-|
A|2-2-2-2-2-2-2x1-|----------------|----------------|----------------|
E|----------------|5\--------3-5-5\|----3-5-5\----3-|5-5\------------|

G|----------------|----------------|----------------|----------------|
D|----------------|----------------|----------------|----------------|
A|--7-7-7-7-5-3-0-|----------0-----|----------------|----------------|
E|0---------------|3-0.     ---3-0.|.               |----------------|
comments
We did not receive enough feedback on this tab! Please rate:
print report bad tab
1 2 3 4 5
I want to post or [tab]
guest
You may want to rate the tab now too:
select rating
Please do not post tabs as comments. Select "correction" instead!