Oops, an error
Loading. Please wait.

Break On Through Bass Tab

version 1
version 1

Whole song

Interactive

91,901 views 111 this week
20 commentsread comments
1 2 3 4 5
excellent!
x 32
add to favorites
launch autoscroll
font size
0
reset
guitar tuner
Tab Pro tools
  • play this tab
  • loop segment
  • change instrument
  • show fretboard
  • metronome
×
Best way to learn
"Break On Through"
Autoscroll
slow
fast
+/-
esc
set tempo
stop
The Doors - "Break On Through" - Bass Tab

Main Riff:

|---------------------|
|*---------.-.-------*|
|*-7---5-0-7-7---5-0-*|
|----7---------7------|
   1 & 2 & 3 & a 4 &

Pre-Chorus:

|-------------|
|-------------|
|-5-0-5-5-0-5-|
|-------------|
  1 & 2 3 & 4

Chorus:

|-----------------------|
|*---------5h7-5-------*|
|*-7---5-7-------7-7-7-*|
|----7------------------|
   1 & 2 & 3 e & a 4 &

End:

|-------------------|
|*-----------------*|
|*-7---5-7-7---5-7-*|
|----7-------7------|
   1 & 2 & 3 & 4 &

By: Johari Taylor
E-mail: viking@powerup.com.au




comments
print report bad tab
20 comments total. Showing first comments. show 1 bad comment
+5 reply
quibbs0 wrote on June 6 2005, 12:00 am

Correction for two parts of the song.

Main Riff, I don't think there is an Open A at all. I think it goes:
|---------------------|
|*-------------------*|
|*-7---5---7-7---5---*|
|----7---7-----7---7--|
1 & 2 & 3 & a 4 &


Chorus: Althought this part sounded right when played, it's the lead guitar that does it, not the bass. Bass only does:

|-------------------|
|*-----------------*|
|*---------5---7---*|
|--5---7------------|
1 & 2 & 3 & 4 &

I know it seems too simple but that's what it does.

+7 reply
goest wrote on December 28 2005, 07:22 pm

yes, but u can play organ parts on a bass...jesus, think outside the box

I want to post or [tab]
guest
You may want to rate the tab now too:
select rating
Please do not post tabs as comments. Select "correction" instead!