Oops, an error
Loading. Please wait.

Break On Through Tab

version 2
version 2

Whole song

Interactive

Video

58,335 views 231 this week
1 commentread comment
1 2 3 4 5
accurate
x 12
add to favorites
launch autoscroll
font size
0
reset
how to read this tab
guitar tuner
Tab Pro tools
  • play this tab
  • loop segment
  • change instrument
  • show fretboard
  • metronome
×
Best way to learn
"Break On Through"
Autoscroll
slow
fast
+/-
esc
set tempo
stop
Contributor
Difficulty
intermediate
                    Break On Through (To The Other Side)
                                 The Doors

intro:
(the keyboard starts out with this):
|-------------------|
|-------------------|
|---4---2---4-4---2-|
|-2---0---2-----0---|
|-------------------|
|-------------------|

(The guitar come in with this):
|-------------------------------------------|
|-------------------------------------------|
|-------------------------------------------|
|-----2-0--2-2---0---------2-0--2-2---0-----|
|--------------2---14\--------------2---14\-|
|-(0)------------------(0)------------------|

You know the day destroys the night, 
Night divides the day

  Try to run      Try to hide
|-2------2--------2------2----|
|-3------3--------3------3----|
|-2------2--------2------2----|
|-0------0--------0------0----|
|-----------------------------|
|-----------------------------|

 Break on through to the other side
|------------------------------|
|------------------------------|
|-----------------0h2p0--------|
|-----------0h1h2-------2--0-2-|
|-----0h1h2--------------------|
|-0-3--------------------------|

 Break on through to the other side
|------------------------------|
|------------------------------|
|-----------------0h2p0--------|
|-----------0h1h2-------2--0-2-|
|-----0h1h2--------------------|
|-0-3--------------------------|

 Break on through to the other side
|------------------------------|
|------------------------------|
|-----------------0h2p0--------|
|-----------0h1h2-------2--0-2-|
|-----0h1h2--------------------|
|-0-3--------------------------|

The song repeats itself again

Keyboard solo for guitar (The guitar in the back just plays the guitar intro):
|-10--10--10-10--10-10-10-10-10-------7-7-7-7-------|
|-10--10--10-10--10-10-10-10-10-----5-8-8-8-8-5-8-5-|
|---------------------------------------------------|
|---------------------------------------------------|
|---------------------------------------------------|
|---------------------------------------------------|

|-10-10--10-10--10-10-10-------7-7--7-7--7-----|
|-10-10--10-10--10-10-10-----5-8-8--8-8--8-7---|
|--------------------------------------------7-|
|----------------------------------------------|
|----------------------------------------------|
|----------------------------------------------|

|------7-7--7-5----------7-7--7-5-------------7-7--7-5---|
|-8-8-----------7----8-8----------8----8--8-8----------7-|
|--------------------------------------------------------|
|--------------------------------------------------------|
|--------------------------------------------------------|
|--------------------------------------------------------|

|------7-7--5-5--5------|
|-8-8--------------7-7--|
|-----------------------|
|-----------------------|
|-----------------------|
|-----------------------|
   every bo dy             lovesmy ba by
|-10--10-10-10--------------10--10-10-10------------|
|-10--10-10-10--------------10--10-10-10------------|
|-11--11-11-11--9-12p9-12---11--11-11-11--9-12p9-12-|
|---------------------------------------------------|
|---------------------------------------------------|
|---------------------------------------------------|

   every bo dy             lovesmy ba by
|-12--12-12-12--------------12--12-12-12------------|
|-12--12-12-12--------------12--12-12-12------------|
|---------------9-12p9-12-----------------9-12p9-12-|
|---------------------------------------------------|
|---------------------------------------------------|
|---------------------------------------------------|

here's the part where Jim says "She get!"
|-12-10---12-12-----10-10-|-12-10---12-12-----10-10-|
|----------------12-------|----------------12-------|
|-------------------------|-------------------------|
|-------------------------|-------------------------|
|-------------------------|-------------------------|
|-------------------------|-------------------------|

Later in the song

 Break on through to the other side
|------------------------------|
|------------------------------|
|-----------------0h2p0--------|
|-----------0h1h2-------2--0-2-|
|-----0h1h2--------------------|
|-0-3--------------------------|

 Break on through to the other side
|------------------------------|
|------------------------------|
|-----------------0h2p0--------|
|-----------0h1h2-------2--0-2-|
|-----0h1h2--------------------|
|-0-3--------------------------|

 Break on through  oww       
|------------------------------|
|------------------------------|
|-----------------0h2p0--------|
|-----------0h1h2-------2--0-2-|
|-----0h1h2--------------------|
|-0-3--------------------------|

Ohh Yeahhh!
|----------------------------------|
|----------------------------------|
|----------------------------------|
|-----------0h1h2------------0h1h2-|
|-----0h1h2------------0h1h2-------|
|-0-3--------------0-3-------------|

(01:53)
|-15-15--15-15--15-15-15-15---15-15--15-15----15-15-15-15-|
|-15-15--15-15--15-15-15-15---15-15--15-15----15-15-15-15-|
|-16-16--16-16--16-16-16-16---16-16--16-16----16-16-16-16-|
|------------------------------------------17-------------|
|---------------------------------------------------------|
|---------------------------------------------------------|


Made the scene from week to week Day to day, hour to hour
|-15-15--15-15--15-15-15-15---15-15--15-15----15-15-15-15-|
|-15-15--15-15--15-15-15-15---15-15--15-15----15-15-15-15-|
|-16-16--16-16--16-16-16-16---16-16--16-16----16-16-16-16-|
|------------------------------------------17-------------|
|---------------------------------------------------------|
|---------------------------------------------------------|

The gate is straight Deep and wide
|---2------2---------2--------2----|
|---3------3---------3--------3----|
|---2------2---------2--------2----|
|---0------0---------0--------0----|
|----------------------------------|
|----------------------------------|
 Break on through to the other side
|------------------------------|
|------------------------------|
|-----------------0h2p0--------|
|-----------0h1h2-------2--0-2-|
|-----0h1h2--------------------|
|-0-3--------------------------|

 Break on through to the other side
|------------------------------|
|------------------------------|
|-----------------0h2p0--------|
|-----------0h1h2-------2--0-2-|
|-----0h1h2--------------------|
|-0-3--------------------------|

 Break on through to the other side       
|------------------------------|
|------------------------------|
|-----------------0h2p0--------|
|-----------0h1h2-------2--0-2-|
|-----0h1h2--------------------|
|-0-3--------------------------|

Break on through
|----------------------------------|
|----------------------------------|
|----------------------------------|
|-----------0h1h2------------0h1h2-|
|-----0h1h2------------0h1h2-------|
|-0-3--------------0-3-------------|

Break on through
|----------------------------------|
|----------------------------------|
|----------------------------------|
|-----------0h1h2------------0h1h2-|
|-----0h1h2------------0h1h2-------|
|-0-3--------------0-3-------------|

Break on through
|----------------------------------|
|----------------------------------|
|----------------------------------|
|-----------0h1h2------------0h1h2-|
|-----0h1h2------------0h1h2-------|
|-0-3--------------0-3-------------|

Break on through
|----------------------------------|
|----------------------------------|
|----------------------------------|
|-----------0h1h2------------0h1h2-|
|-----0h1h2------------0h1h2-------|
|-0-3--------------0-3-------------|

  Yeah yeah yeah yeah yeah yeah yeah yeah yeah
|---------------------------------------------|
|---------------------------------------------|
|-7b9--7b9--7b9--7b9--7b9--7b9--7b9--7b9--7b9-|
|---------------------------------------------|
|---------------------------------------------|
|---------------------------------------------|
comments
print report bad tab
1 comment total.
+1 reply
beatarmy5 wrote on August 26 2006, 05:45 pm

non accurate

I want to post or [tab]
guest
You may want to rate the tab now too:
select rating
Please do not post tabs as comments. Select "correction" instead!