Oops, an error
Loading. Please wait.

Break On Through Bass Tab

version 3
version 3

Whole song

Interactive

10,036 views 30 this week
no commentswrite comment
1 2 3 4 5
excellent!
x 4
add to favorites
launch autoscroll
font size
0
reset
guitar tuner
Tab Pro tools
  • play this tab
  • loop segment
  • change instrument
  • show fretboard
  • metronome
×
Best way to learn
"Break On Through"
Autoscroll
slow
fast
+/-
esc
set tempo
stop
Contributor
Break on Through (To the Other Side) - The Doors

Tabbed By: born21239
e-mail: bass21239@gmail.com

First, a brief explanation of why I made this tab and why it is
more accurate than the others posted. None of the other tabs
have all of the notes, and some, like the current top rated bass
tab for this song, add parts that aren't there on top of it.
To be clear, this song does not consist only of single notes, 
there are chords. The unique distortion featured on this song is
created by playing these chords on the Fender Rhodes Piano Bass,
which makes them sound like single notes, but somewhat distorted.
This effect may also be observed on Twentieth Century Fox. So take
heed, THIS is how the song is actually played. If you find it too
difficult to play, then just use the top-rated tab and take note of
the sections it inserts that are not on the actual song.

The bass on this song is played by Ray Manzarek on a Fender
Rhodes Piano Bass, not a bass guitar. Play it with your
fingers and listen to the recording to pick up on the exact
timbre of the notes. You can transpose the strings however
you like, as the bassline is not originally written for the
bass guitar. This is just the way I prefer to play it and
think sounds best. This is the whole song from beginning to
end, at least 99% accurate.

Tuning: EADG

0:03 (repeat at 0:08)
G|-9-----7----9-|-(9)------7-----|-9-----7----9-|-(9)------7-----|
D|----7-----5---|-----7--7----5--|----7-----5---|-----7--7----5--|
A|-7-----5----7-|-(7)------5-----|-7-----5----7-|-(7)------5-----|
E|--------------|----------------|--------------|----------------|

0:13
G|-9-----7----9-|-(9)------7-----|-7----7------|-7----7-----7-|
D|----7-----5---|-----7--7----5--|----7-----7--|----7-----7---|
A|-7-----5----7-|-(7)------5-----|-5----5------|-5----5-------|
E|--------------|----------------|-------------|--------------|

0:18
G|-------7--9--|-------7--9--|-------7--9--|-------7--9--|
D|----9--------|----9--------|----9--------|----9--------|
A|-7-----------|-7-----------|-7-----------|-7-----------|
E|-------------|-------------|-------------|-------------|

0:24
G|-------7--9--|-------7--9--|-9-----7----9-|-(9)------7-----|
D|----9--------|----9--------|----7-----5---|-----7--7----5--|
A|-7-----------|-7-----------|-7-----5----7-|-(7)------5-----|
E|-------------|-------------|--------------|----------------|

0:29
G|-9-----7----9-|-(9)------7-----|-9-----7----9-|-(9)------7-----|
D|----7-----5---|-----7--7----5--|----7-----5---|-----7--7----5--|
A|-7-----5----7-|-(7)------5-----|-7-----5----7-|-(7)------5-----|
E|--------------|----------------|--------------|----------------|

0:34
G|-9-----7----9-|-(9)------7-----|-7----7------|-7----7-----7-|
D|----7-----5---|-----7--7----5--|----7-----7--|----7-----7---|
A|-7-----5----7-|-(7)------5-----|-5----5------|-5----5-------|
E|--------------|----------------|-------------|--------------|

0:39
G|-------7--9--|-------7--9--|-------7--9--|-------7--9--|
D|----9--------|----9--------|----9--------|----9--------|
A|-7-----------|-7-----------|-7-----------|-7-----------|
E|-------------|-------------|-------------|-------------|

0:45
G|-------7--9--|-------7--9--|-------------|-------------|
D|----9--------|----9--------|----9-----7--|----9-----7--|
A|-7-----------|-7-----------|-7-----5-----|-7-----5-----|
E|-------------|-------------|-------------|-------------|

0:50 (repeat at 0:55, 1:00, 1:06, 1:11, 1:16, 1:21)
G|-------------|-------------|-------------|-------------|
D|----9-----7--|----9-----7--|----9-----7--|----9-----7--|
A|-7-----5-----|-7-----5-----|-7-----5-----|-7-----5-----|
E|-------------|-------------|-------------|-------------|

1:26
G|-------------|-------------|-9-----7----9-|-(9)------7-----|
D|----9-----7--|----9-----7--|----7-----5---|-----7--7----5--|
A|-7-----5-----|-7-----5-----|-7-----5----7-|-(7)------5-----|
E|-------------|-------------|--------------|----------------|

1:32
G|-9-----7----9-|-(9)------7-----|-9-----7----9-|-(9)------7-----|
D|----7-----5---|-----7--7----5--|----7-----5---|-----7--7----5--|
A|-7-----5----7-|-(7)------5-----|-7-----5----7-|-(7)------5-----|
E|--------------|----------------|--------------|----------------|

1:37
G|-9-----7----9-|-(9)------7-----|-7----7------|-7----7-----7-|
D|----7-----5---|-----7--7----5--|----7-----7--|----7-----7---|
A|-7-----5----7-|-(7)------5-----|-5----5------|-5----5-------|
E|--------------|----------------|-------------|--------------|

1:42 (repeat at 1:47, 1:53, 1:58)
G|-------7--9--|-------7--9--|-------7--9--|-------7--9--|
D|----9--------|----9--------|----9--------|----9--------|
A|-7-----------|-7-----------|-7-----------|-7-----------|
E|-------------|-------------|-------------|-------------|

2:04
G|-7----7------|-7----7-----7-|-------7--9--|-------7--9--|
D|----7-----7--|----7-----7---|----9--------|----9--------|
A|-5----5------|-5----5-------|-7-----------|-7-----------|
E|-------------|--------------|-------------|-------------|

2:09 (repeat at 2:15)
G|-------7--9--|-------7--9--|-------7--9--|-------7--9--|
D|----9--------|----9--------|----9--------|----9--------|
A|-7-----------|-7-----------|-7-----------|-7-----------|
E|-------------|-------------|-------------|-------------|

2:20
G|-------7--9--|-------7--9--|---|
D|----9--------|----9--------|-9-|
A|-7-----------|-7-----------|---|
E|-------------|-------------|---|
comments
print report bad tab
I want to post or [tab]
guest
You may want to rate the tab now too:
select rating
Please do not post tabs as comments. Select "correction" instead!