Oops, an error
Loading. Please wait.

Crystal Ship tab

version 1
version 1

Whole song

Interactive

32,248 views 24 this week
1 commentread comment
1 2 3 4 5
x 4
add to favorites
×
Save as Personal and add changes to this tab that will be seen only by you. Learn more ›
×
You can save this tab as Personal to edit and correct it or add notes. All changes will be seen only by you. Learn more »
launch autoscroll
font size
0
reset
how to read this tab
guitar tuner
edit
Autoscroll
slow
fast
+/-
esc
set tempo
stop
Author
Unregistered
Band: The Doors
Song: Crystal Ship

     W                   W                   W                 
e|-------------------|-------------------|-------------------|
B|-------------------|-------------------|-------------------|
G|-------------------|-------------------|-------------------|
D|-------------------|-------------------|-------------------|
A|-------------------|-------------------|-------------------|
E|-------------------|-------------------|-------------------|

     Q.      E   Q     E   E      Q    Q    E  E  E  E      H.           E  E   
e|--------------13-------------|-------8-----------------|---------------------|
B|--------------13-------------|------------8------------|------------------6--|
G|--------------13----13-------|---------------8---------|---------------7-----|
D|--------------15-------------|------------------8------|---------------------|
A|-----------------------------|-------------------------|---------------------|
E|--13------13------------13S--|--8------------------8S--|--6------------------|

    H        E  E  E  E     E  E  E  E  E  E  E  E     E  E  Q    E  E  E  E   
e|-----------------2-----|--------------------------|-------------------------|
B|-----------2--------2--|--------------------------|-------------------------|
G|--------------3--------|-----2--2-----2--2-----2--|-----7--7----7--7-----7--|
D|-----------------------|-----3--3-----3--3-----3--|-----8--8----8--8-----8--|
A|-----------------------|--------------------------|-------------------------|
E|--2--------------------|--1--------1--------1-----|--6----------6--6--6-----|

    E   E   E  E  Q    Q       Q    E  E    E   E   E   E    
e|--------------------------|--1----1-----------------------|
B|--------------------------|--1----1-----------------------|
G|------9---9-----7----7----|--2----2------12------12-------|
D|-----10--10-----8----8----|--------------13------13--13S--|
A|--------------------------|-------------------------------|
E|--8----------8--6----6----|--1-------1S--11--11-----------|

    E  E  E  E    E   E   E   E      Q    Q    Q     Q     
e|-----1--1-----------------------|-------1---------------|
B|-----1--1-----------------------|-------1---------------|
G|-----2--2------12------12-------|-------2---------10----|
D|---------------13------13-------|-----------------11----|
A|--------------------------------|-----------------------|
E|--1--------1S--11--11------11S--|--1---------9----------|

    Q    Q     Q     Q       E   E   E  E   E   E  E   E   
e|------------------------|-------------------------------|
B|------------------------|-------------------------------|
G|-------5----------12----|------9---9------9---9------9--|
D|-------6----------13----|-----10--10-----10--10-----10--|
A|------------------------|-------------------------------|
E|--4---------11----------|--8----------8----------8------|

    E  E  E   E  Q     E  E      H        E   Q    E     Q    E  E  E  E   Q     
e|--8---------------------8--|--13--------L--------x--|----------8--L-----------|
B|-----8--------------11-----|--13--------L--------x--|-------8-----------------|
G|--------9------------------|---------------13-------|----------------8--------|
D|-----------10--L-----------|------------------------|-------------------10----|
A|---------------------------|------------------------|-------------------------|
E|---------------------------|------------------------|--8-----------------8----|

    Q    E  E  E  E  Q        Q.     E  E  E  Q       E  E  E  E  E  E  E  E   
e|-------------------------|---------2-------------|--------------------------|
B|-------------6-----------|------------2----------|--------------------------|
G|----------7-----7--------|---------------3-------|-----2--2-----2--2-----2--|
D|-------8-----------7S----|------------------5----|-----3--3-----3--3-----3--|
A|-------------------------|-----------------------|--------------------------|
E|--6----------------------|--2---------------2----|--1--------1--------1-----|

    E  E  E  E  E  E  E  E     E   E   Q    E  E  E  E    
e|--------------------------|----------------------------|
B|--------------------6-----|----------------------------|
G|-----7--7-----7--7-----7--|------9---9-------7--7------|
D|-----8--8-----8--8-----8--|-----10--10-------8--8------|
A|--------------------------|----------------------------|
E|--6--------6--------------|--8------------6--------6S--|

     E   E   E   E   E   Q     E      E   E   E   E   E   E   E   E   
e|--------------------------------|----------------------------------|
B|--------------------------------|----------------------------------|
G|------14--14----------------12--|------14--14------12------12--12--|
D|------15--15----------------13--|------15--15------13------13--13--|
A|--------------------------------|----------------------------------|
E|--13----------13--11--11--------|--13----------13--11--11----------|

     E   S S  S S  S S  S S  S S  S S  S S  
e|-----------------------------------------|
B|-----------------------------------------|
G|------14---14---14---14---14---14---14---|
D|------15---15---15---15---15---15---15---|
A|-----------------------------------------|
E|--13--13---13---13---13---13---13---13---|

     S S  S S  S S  S S  S S  S S  S S  S S     Q.      E  E   E   Q     
e|------------------------------------------|---------------------------|
B|------------------------------------------|--13------13--L--13--13----|
G|--14---14---14---14---14---14---14--------|--13------13--L--13--13----|
D|--15---15---15---15---15---15---15--------|--15------15--L--15--15----|
A|------------------------------------------|---------------------------|
E|--13---13---13---13---13---13---13---13---|--13------13--L--13--13----|

     Q     E   E  E   E   Q       E  E  Q    E  E  E  E   
e|-----------------------------|-------------------------|
B|--11----11--11--L--11--11----|-------------------------|
G|--12----12--12--L--12--12----|-------------------------|
D|--13----13--13--L--13--13----|--------3-------3--3-----|
A|-----------------------------|-----3-------3--------3--|
E|--11----11--11--L--11--11----|--1----------------------|

     E.   S  E   E  H            Q     Q     Q     Q       Q    Q     Q     Q     
e|---------------------------|--------------------------|------------------------|
B|--11---11-11--11--L--------|--13----13-----9-----9----|--4----4----11----11----|
G|--12---12-12--12--L--------|--13----13----10----10----|--5----5----12----12----|
D|--13---13-13--13--L--------|--15----15----11----11----|--6----6----13----13----|
A|---------------------------|--------------------------|------------------------|
E|--11---11-11--11--L--------|--13----13-----9-----9----|--4----4----11----11----|

    E   S S  S S  S S  S S  S S  S S S S     S S  S S  S S  S S  H         
e|---------------------------------------|--------------------------------|
B|------8----8----8----8----8----8-------|---8----8----8----8----8--------|
G|------9----9----9----9----9----9-------|---9----9----9----9----9--------|
D|-----10---10---10---10---10---10-------|--10---10---10---10---10--------|
A|---------------------------------------|--------------------------------|
E|--8---8----8----8----8----8----8---8---|---8----8----8----8----8--------|

     H        E   E   E   E      Q.     E  E   E  E   E   
e|-------------------13-------|-------------------8------|
B|--13--------L---------------|---------8----------------|
G|--13--------L---------------|------------8-------------|
D|--15--------L--15-----------|---------------10-----10--|
A|----------------------------|--------------------------|
E|-----------------------13S--|--L-----------------------|

    E  E  E  E  E  E  Q        Q    Q    E  E  E  E     E  E  E  E  E  E  E  E   
e|--------------------------|-------2----------------|--------------------------|
B|--------6-----6-----------|------------2-----------|--------------------------|
G|-----7-----7--------7S----|---------------3--------|-----2--2-----2--2-----2--|
D|-----------------7--------|------------------4-----|-----3--3-----3--3-----3--|
A|--------------------------|---------------------4--|--------------------------|
E|--6-----------------------|--2---------------------|--1--------1--------1-----|

    E  E  Q    E  E  E  E     E   E   E  E  Q    Q     
e|-------------------------|--------------------------|
B|-------------------------|--------------------------|
G|-----7--7----7--7-----7--|------9---9-----7----7----|
D|-----8--8----8--8-----8--|-----10--10-----8----8----|
A|-------------------------|--------------------------|
E|--6----------6--6--6-----|--8----------8--6----6----|

    Q    E  E    E   E   E   E      E  E  E  E    E   E   E   E    
e|--1----1-----------------------|-----1--1-----------------------|
B|--1----1-----------------------|-----1--1-----------------------|
G|--2----2------12------12-------|-----2--2------12------12-------|
D|--------------13------13--13S--|---------------13------13-------|
A|-------------------------------|--------------------------------|
E|--1-------1S--11--11-----------|--1--------1S--11--11------11S--|

     E   E   E   E   E   E   E   E      E   E   E   E   E   E   E   E   
e|----------------------------------|----------------------------------|
B|------13--13------13--13------13--|------13--13------13--13------13--|
G|------14--14------14--14------14--|------14--14------14--14------14--|
D|------15--15------15--15------15--|------15--15------15--15------15--|
A|----------------------------------|----------------------------------|
E|--13----------13----------13------|--13----------13----------13------|

     Q.      E  E   E   E   E      Q     E   E  E   E   E   E   
e|-----------------------------|-------------------------------|
B|--13------13--L--13--13--13--|---8-----8---8--L---8---8---8--|
G|--13------13--L--13--13--13--|---8-----8---8--L---8---8---8--|
D|--15------15--L--15--15--15--|--10----10--10--L--10--10--10--|
A|-----------------------------|-------------------------------|
E|--13------13--L--13--13--13--|---8-----8---8--L---8---8---8--|

    Q    E  E  E  E  E  E     E  E  Q    Q    E  E     Q    E  E  E  E  E  E   
e|----------------------x--|------------------------|-------------------------|
B|--6----6--6--L-----6--x--|-----2--2----2----2--2--|--1----1--1--L--1--1--1--|
G|--7----7--7--L-----7-----|-----3--3----3----3--3--|--2----2--2--L--2--2--2--|
D|--8----7--7--L-----7-----|-----4--4----4----4--4--|--3----3--3--L--3--3--3--|
A|-------------------------|------------------------|-------------------------|
E|--6-------------6--------|--2---------------------|--1----1--1--L--1--1--1--|

    E  E  E  E  E  E  E  E      E   E   E   E  Q    Q     
e|--------------------------|----------------------------|
B|-----6--6--6-----6--6--6--|---8---8---8---8--6----6----|
G|-----7--7--7-----7--7--7--|---9---9---9---9--7----7----|
D|-----8--8--8-----8--8--8--|--10--10--10--10--8----8----|
A|--------------------------|----------------------------|
E|--6--6--6--6--6--6--6--6--|---8---8---8---8--6----6----|

    Q    Q     Q     Q        Q    Q    Q    Q       X X X X S Q.     H          
e|-------------------------|----------------------|----------------------------||
B|------------11----11-----|----------------------|--------1-L-L---------------||
G|------------12----12-----|----------------------|------2-2-L-L---------------||
D|--3----3----13----13-----|--3----3----3----3----|----3-3-3-L-L---------------||
A|--3----3-----------------|--3----3----3----3----|----------------------------||
E|--1----1----11----11S----|--1----1----1----1----|--1-1-1-1-L-L---------------||

Duration Legend
---------------
W - whole
H - half
Q - quarter
E - 8th
S - 16th
T - 32nd
X - 64th
. - note dotted
|-n-|  - n-tuplets

  
************************************

| x  Dead note 

************************************
Suggest correction
Creating personal tab
Creating personal tab
You can edit any tab online and save it as your Personal.

You can edit, replace or remove any tab part or add personal notes – all changes will be seen only by you.

Personal tabs can be accessed anytime from any device, even offline.
Learn more »
comments
print report bad tab
1 comment total.
0 reply
Fredric Chopin 10 May 13, 2009 05:25 AM

...its alright.

guest
Wanna post a correction for this tab? Suggest correction