Oops, an error
Loading. Please wait.

Crystal Ship Bass Tab

version 2
version 2

Whole song

Interactive

2,622 views 6 this week
no commentswrite comment
1 2 3 4 5
please rate
add to favorites
launch autoscroll
font size
0
reset
guitar tuner
Tab Pro tools
  • play this tab
  • loop segment
  • change instrument
  • show fretboard
  • metronome
×
Best way to learn
"Crystal Ship"
Autoscroll
slow
fast
+/-
esc
set tempo
stop
Contributor
The Doors                                              -------------|
The Crystal Ship                                      --------------|
bass tab                                             ----------(6)--|
                                                    ---(7)-(9)------|
  0.02         verse 1           t:95             4:4
|----------------|----------------|----------------|----------------|
|----7---10------|--------5-------|----8-----------|----8---10--8---|
|8-----8---------|----6-------6---|------8-X---8---|10--------------|
|----------------|8-------------8-|6---------8-----|----------------|

|----------------|---------------//----------------|
|----------------|----8-----------|----X-----------|
|--8-----8---86--|------8---------|------X---------|
|6---6-8-------8-|6-------8-----6-|8-------8---.-.-|

|----------------|----------------|----------------|----------------|
|----X---X-8-----|----X---8-------|----X-----------|----------------|
|------8-------6-|8-----X---8-X\--|8-----8-----8---|E---E-E-E\X-X---|
|=---------------|----------------|--------9-------|----------------|

                                  |----------------|----------------|
                                  |--X-8-X---X-8-X-|=-X-8-X-=-X-8---|
                                  |----------------|--------------X-|
                                  |8-------8-------|----------------|
  0.39         verse 2
|----------------|----------------|----------------|-----------\\---|
|----7---X---7---|--------5-------|8-----6---6---8-|------8-X-----3-|
|8-----8-------8-|----6-------6---|----8-------8---|----------------|
|----------------|8---------------|----------------|8---------------|

|-----//---------|---------------//----------------|
|--3-----3---3-3-|----------------|----X-----------|
|1---1-3---3-----|----3-----------|------X-------8-|
|----------------|4-=---4-=-6-6-=-|8-------8-------|

|----------------|----------------|----X-X-X-=-X-X-|=-X-X-=-X-=-X-X-|
|X-------8-------|----X---8-------|----------------|----------------|
|----8-----X---6-|8-----X---8-X---|8-=-------------|----------------|
|----------------|----------------|----------------|----------------|

  1.09         solo
|x---------------|----------------|----------------|----------------|
|----X-------X---|----------------|----------------|----------------|
|------8---X---X-|----------------|8-8-8-8-8-8-8-8-|6---6-6-6---6---|
|----------------|11--E-E-E-E-E-E-|----------------|----------------|

|----------------|---------------//-----^-------^--|-^---^----------|
|3-o-3-----------|6---6---=-------|--XX8XX---XX8XXX|8XXX8XXX8---8---|
|--------3---3---|----------6-8---|----------------|----------X---X-|
|----------------|--------------6-|8---------------|----------------|

  1.30         verse 3
|----------------|----------------|----------------|------------------|
|--------X--------------x-x-------|----------------|--------10----10--|
|8-----8-------X------------------|----------------|9-----8-----------|
|----------------|8---------------|6---------------|------------------|

|----------------|----------------|----------------|
-----X-----X-X-=-|----8-----------|--XX--X---------|
|--8---8-=-------|------8-=---8-=-|----8X----------|
|----------------|6---------------|----------------|

|----------------|----------------|X-----X-----X---|--X-----X---X-X-|
|X-------8-------|----8---X---8---|----X---------X-|------X---------|
|----8---------6-|8-----8-------X-|----------------|X---------------|
|----------------|----------------|----------------|----------------|

  2.00         chorus
|x---x-----------|----^-------^---|----------------|----------------|
|------x---------|----9-9-8-9-9---|----------8-8---/9---X---X---X-X-|
|--------8-------|---8------------|--------------8-|--9-------------|
|----------------|--------------8-|6---------------|----------------|

|----------------|----------------|----------------|
|----X-----X-7---|6---6-----------|----X-----------|
|8-----8-=-----8-|--6---6---------|------X---------|
|----------------|--------6-6-6-6-|8-8-------------|

|----------------|----------------|-----------------|
|--------1---1---|--------1-1---1-/3---3-...--------|
|----------------|----------------|-----------------|
|1---1---------.-|1---1-----------|1----------------|

| /  slide up
| \  slide down
| // reposition
| (7) harmonics, or quieter, or other instrument
| .   incidental note (last note or open string)
| o   open incidental note (quieter open string)
| ^   bend, pre-struck note (hammer-on pull-off)
| =   rest

| X   10
| E   11
| T   12

other punctuation
= percussion cues

horizonto time standardized
display in fixed-width font
one space ("-") = 1/16 note
n fits neatly on one screen
print out in landscape mode

tabbed by
spaceyhippie
dudeman.net/jam
comments
We did not receive enough feedback on this tab! Please rate:
print report bad tab
1 2 3 4 5
I want to post or [tab]
guest
You may want to rate the tab now too:
select rating
Please do not post tabs as comments. Select "correction" instead!