Oops, an error
Loading. Please wait.

End Of The Night Bass Tab

version 1
version 1

Whole song

Interactive

2,577 views 3 this week
no commentswrite comment
1 2 3 4 5
excellent!
x 1
add to favorites
launch autoscroll
font size
0
reset
guitar tuner
Tab Pro tools
  • play this tab
  • loop segment
  • change instrument
  • show fretboard
  • metronome
Autoscroll
slow
fast
+/-
esc
set tempo
stop
Contributor
End of the Night - The Doors

Tabbed By: born21239
e-mail: bass21239@gmail.com

The bass on this song is played by Ray Manzarek on a Fender
Rhodes Piano Bass, not a bass guitar. Play it with your fingers
and listen to the recording to pick up on the exact timbre of 
the notes. This is the whole song from beginning to end, 100% 
accurate.

Tuning: EADG

0:06
G|-----------9---|-----------9---|-----------9---|-----------9---|
D|---------9---9-|---------9---9-|---------9---9-|---------9---9-|
A|-5--6-7--------|-5--6-7--------|-5--6-7--------|-5--6-7--------|
E|---------------|---------------|---------------|---------------|

0:20
G|----9---7----7-|----9---7----7-|-----------9---|-----------9---|
D|------9----9---|------9----9---|---------9---9-|---------9---9-|
A|-7-------------|-7-------------|-5--6-7--------|-5--6-7--------|
E|---------------|---------------|---------------|---------------|

0:33
G|----9---7----7-|----9---7----7-|-----------9---|-----------9---|
D|------9----9---|------9----9---|---------9---9-|---------9---9-|
A|-7-------------|-7-------------|-5--6-7--------|-5--6-7--------|
E|---------------|---------------|---------------|---------------|

0:46
G|----9-9----9-9-|---------------|----9-9----9-9-|---------------|
D|-7------7------|----9-9----9-9-|-7------7------|----9-9----9-9-|
A|---------------|-7------7------|---------------|-7------7------|
E|---------------|---------------|---------------|---------------|

0:59
G|----9-9----9-9-|---------------|---11------11----------|----9---9-------|
D|-7------7------|----9-9----9-9-|------9-11-------11----|------9---9---9-|
A|---------------|-7------7------|-9------------12----12-|-7----------7---|
E|---------------|---------------|-----------------------|----------------|

1:12
G|-----------9---|-----------9---|-----------9---|---------------|
D|---------9---9-|---------9---9-|---------9---9-|---------9---9-|
A|-5--6-7--------|-5--6-7--------|-5--6-7--------|-5--6-7----7---|
E|---------------|---------------|---------------|---------------|

1:25
G|----9-7-9--7-9-|----9---7-----7-|-----12----9-----9-|----9---7----7-|
D|-7-------------|------9---7-9---|--------12----12---|------9----9---|
A|---------------|-7--------------|-12----------------|-7-------------|
E|---------------|----------------|-------------------|---------------|

1:39
G|-----12----12--------|----9---7----7-|---11------11----------|-----------------|
D|--------14-----14-12-|------9----9---|------9-11-------11----|-----9---9---9---|
A|-12------------------|-7-------------|-9------------12----12-|---9---9---9---9-|
E|---------------------|---------------|-----------------------|-7---------------|

1:51
G|-----------9---|-----------9---|-----------9---|-----------7---|
D|---------9---9-|---------9---9-|---------9---9-|---------9---9-|
A|-5--6-7--------|-5--6-7--------|-5--6-7--------|-5--6-7--------|
E|---------------|---------------|---------------|---------------|

2:05
G|---------12-----12-|----9---7----7-|-----12----12-----12-|----9---7----7-|
D|-----14------14----|------9----9---|--------14-----14----|------9----9---|
A|-12----------------|-7-------------|-12------------------|-7-------------|
E|-------------------|---------------|---------------------|---------------|

2:18
G|-----12----12-----12-|----9---7----7-|---11------11----------|---9---9---9-----|
D|--------14-----14----|------9----9---|------9-11-------11----|-----9---9---9---|
A|-12------------------|-7-------------|-9------------12----12-|-7-------------7-|
E|---------------------|---------------|-----------------------|-----------------|

2:31
G|-----------9---|-----------9---|-----------9---|--------|
D|---------9---9-|---------9---9-|---------9---9-|--------|
A|-5--6-7--------|-5--6-7--------|-5--6-7--------|-5--6-7-|
E|---------------|---------------|---------------|--------|
comments
We did not receive enough feedback on this tab! Please rate:
print report bad tab
1 2 3 4 5
I want to post or [tab]
guest
You may want to rate the tab now too:
select rating
Please do not post tabs as comments. Select "correction" instead!