Oops, an error
Loading. Please wait.

Five To One Tab

version 3
version 3

Whole song

Interactive

4,878 views 12 this week
no commentswrite comment
1 2 3 4 5
please rate
add to favorites
launch autoscroll
font size
0
reset
how to read this tab
guitar tuner
Tab Pro tools
  • play this tab
  • loop segment
  • change instrument
  • show fretboard
  • metronome
×
Best way to learn
"Five To One"
Autoscroll
slow
fast
+/-
esc
set tempo
stop
Contributor
-------------------------------------------------------------------------------
                             Five to One - The Doors
-------------------------------------------------------------------------------
Album: Waiting for the Sun

Tuning: Standard EADGBe
Played with drive

00:10 Main Verse Riffs: Steady pace - Repeat X5
e|-----------------|
B|-----------------|
G|-----------------|
D|-----------------|
A|-----------------|
E|--3--5--5--5--5--|

00:33
e|--------------------------------------------------|
B|--------------------------------------------------|
G|--------------------------------------------------|
D|--------------------------------------------------|
A|--------------------------------------------------|
E|--3--5--5--5--5--5--5--5--5/8--8--8--8/10--10/12--|


00:38 - Repeat X10
e|-----------------|-------------------|
B|-----------------|-------------------|
G|--/9--9--5h7--5--|--/9--7--5h7--5----|
D|-----------------|-------------------|
A|-----------------|-------------------|
E|-----------------|-------------------|

01:06
e|-----------------------------------------------------|
B|-----------------------------------------------------|
G|-----------------------------------------------------|
D|-----------------------------------------------------|
A|-----------------------------------------------------|
E|--5--5--5--5--5--5--5--5/12--12--12--12--12--12--12\5|

Solo: Fast 
1:11
e|-20p19-17------------------------------------------------------|
B|--------20p19-17-----------------------------------------------|
G|----------------20p19-17--------17-20----20-20-20-17h19p17-19\-|
D|------------------------19-17-19------19-----------------------|
A|---------------------------------------------------------------|
E|---------------------------------------------------------------|

Solo Cont.
1:16
e|------------------------------------------------|
B|------------------------------------------------|
G|-7/9-7-7/9-7-7/9-7\5------5-----5-7/9-7/9-5h7-5-|
D|--------------------7-5-7---5h7-----------------|
A|------------------------------------------------|
E|------------------------------------------------|

Solo Cont:
01:22
e|-------------------------------------------------------------------------|
B|---17--22-20-17-20-17--22p20-17-22p20-17---------------------------------|
G|----------------------------------------20p19-17-----17-20-20-17h19-17---|
D|------------------------------------------------17h19-----------------19\|
A|-------------------------------------------------------------------------|
E|-------------------------------------------------------------------------|

Solo Cont:
01:27
e|-8--7-5----------------------------------------|
B|--------8--------------------------------------|
G|---------7p5------5-7/9-7/9-7/9-7/9-7/9-5h7-5--|
D|-------------7-5-7---------------------------7-|
A|-----------------------------------------------|
E|-----------------------------------------------|
Solo End

Bridge:
01:35 - Repeat X10
e|---------------------|
B|---------------------|
G|---------------------|
D|---------------------|
A|---------------------|
E|--3--5(5)-3--5--12\--|

The rest of the song is a variation on what i've tabbed
so listen to the record and adjust accordingly :)
comments
We did not receive enough feedback on this tab! Please rate:
print report bad tab
1 2 3 4 5
I want to post or [tab]
guest
You may want to rate the tab now too:
select rating
Please do not post tabs as comments. Select "correction" instead!