Oops, an error
Loading. Please wait.

Hello I Love You Bass Tab

version 2
version 2

Whole song

Interactive

6,760 views 12 this week
no commentswrite comment
1 2 3 4 5
excellent!
x 3
add to favorites
launch autoscroll
font size
0
reset
guitar tuner
Tab Pro tools
  • play this tab
  • loop segment
  • change instrument
  • show fretboard
  • metronome
×
Best way to learn
"Hello I Love You"
Autoscroll
slow
fast
+/-
esc
set tempo
stop
Contributor
-------------------------------------------------------------------------------
			Hello, I Love You - The Doors
-------------------------------------------------------------------------------


 G|-----------------------------|
 D|---2-----------2-0-----------| x6
 A|-0---0---5---0-----2h3p2p0---|
 E|-------3---3---------------2-|

 G|--------------|
 D|--------------| x7
 A|---4-7----2-5-|
 E|-5------3-----|

 G|---------------|
 D|---------------|
 A|---4-7---------|
 E|-5-----3-2-3-4-|

 G|-----------------------------|
 D|---2-----------2-0-----------| x4
 A|-0---0---5---0-----2h3p2p0---|
 E|-------3---3---------------2-|

 G|--------------|
 D|--------------| x7
 A|---4-7----2-5-|
 E|-5------3-----|

 G|----------------|
 D|----------------|
 A|---4-7----2-5---|
 E|-5------3-----5-|

Rest 1:15 to 1:19

 G|--------------|
 D|--------------| x12
 A|---5-8----3-6-|
 E|-6------4-----|

 G|-------------|
 D|-------------| 
 A|---5---------|
 E|-6---6-5-4-1-|

G|-----------------|
D|-----------------| x3
A|-------5---------|
E|-4-5-6---6-5-4-1-|

G|-----------------|
D|-----------------| Fade Out
A|-------5-5-------|
E|-4-5-6-----6-4-1-|


===============================================================================
| h  hammer-on
| p  pull-off
===============================================================================
comments
We did not receive enough feedback on this tab! Please rate:
print report bad tab
1 2 3 4 5
I want to post or [tab]
guest
You may want to rate the tab now too:
select rating
Please do not post tabs as comments. Select "correction" instead!