Oops, an error
Loading. Please wait.

Hyacinth House Bass Tab

version 1
version 1

Whole song

Interactive

3,151 views 12 this week
3 commentsread comments
1 2 3 4 5
please rate
add to favorites
launch autoscroll
font size
0
reset
guitar tuner
Tab Pro tools
  • play this tab
  • loop segment
  • change instrument
  • show fretboard
  • metronome
×
Best way to learn
"Hyacinth House"
Autoscroll
slow
fast
+/-
esc
set tempo
stop
Band: The Doors
Song: Hyacinth House


     H.           S S S S    W                   H        Q    S S S S  
G||-----------------------|-------------------|------------------------|
D||-------------------0-2-|--0----------------|--L-----------------0-2-|
A||---------------0-2-----|-------------------|----------------0-2-----|
E||-----------------------|-------------------|------------------------|


  W                   E  E  E  Q.     S S S S    W                 
-------------------|--4--7--4-----------------|-------------------|
--0----------------|----------------------0-2-|--0----------------|
-------------------|------------------0-2-----|-------------------|
-------------------|--------------------------|-------------------|


  Q    E  Q.     S S S S    H        S  S  Q     E   
-------4--2--------------|-------------15-16----14--|
-------2-------------0-2-|--0-----------------------|
-----------------0-2-----|--------------------------|
-------------------------|--------------------------|


   S  S  E   E   E   E   E   S  S  S  S    W                 
----------------------------------------|-------------------|
--16-14-12------12----------------12----|--7----------------|
------------14------14--12--12-14----14-|-------------------|
----------------------------------------|-------------------|


  Q    E  Q    E  S S S S    W                   Q    E  Q     E   S S E   
--------------------------|-------------------|--2----4--2----11--11-9-7--|
--7----9--7----7------0-2-|--0----------------|-------2-------------------|
-------7----------0-2-----|-------------------|---------------------------|
--------------------------|-------------------|---------------------------|


  Q    E  E  E  E  Q       Q    E  Q    Q    E     E  E  E  Q    E.  S S S  
------------------------|----------0------------|--------2--4----2---0-----|
--7----------7----------|-----------------------|-----4----------------4-2-|
----------7-----7-------|-----------------------|--------------------------|
------------------------|-----------------------|--------------------------|


  E  E  E  Q    E.  S S S    E  E  E  S E.  E  E  E     Q.     H        E   
--------2--4----2---0-----|--------2--2-4---2--------|--2------2--------2--|
-----4----------------4-2-|-----4--------------4--2--|---------------------|
--------------------------|--------------------------|---------------------|
--------------------------|--------------------------|---------------------|


  Q    S S Q    E  E  E           E  E  E  S E.  E  E  E   
---------2-4----2--------|-----|--------2--2-4---2--------|
-------4-----------4--2--|-----|-----4--------------4--2--|
-------------------------|-----|--------------------------|
-------------------------|-----|--------------------------|


  Q.     H        E     Q    S S Q    E  E  E           Q    E  E  E  E  Q     
--2------2--------2--|---------2-4----2--------|-----|-------------2----------|
---------------------|-------4-----------4--2--|-----|----------2-----2-------|
---------------------|-------------------------|-----|------------------------|
---------------------|-------------------------|-----|------------------------|


  Q    E  Q    Q    E     Q    S S Q    E  S S E     Q    E  Q    S S E  E   
----------0------------|---------2-4----2--0-0-2--|----------2----2-4-2-----|
-----------------------|-------4------------------|-------------------------|
-----------------------|--------------------------|-------------------------|
-----------------------|--------------------------|-------------------------|


  E  E  E  E  E  E  E  E     E  E  E  E  E  E  E  E   
--------------------------|--------------------------|
--2-----2-----2-----2-----|--2-----2-----2-----2-----|
--------------------------|--------------------------|
--------------------------|--------------------------|


  E  E  E  E  E  E  E  E     E  E  E  E  E  E  E  E   
--------------------------|--------------------------|
--2-----2-----2-----2-----|--2-----2-----2-----2-----|
--------------------------|--------------------------|
--------------------------|--------------------------|


  E  E  E  E  E  E  E  E     E  E  E  E  E  E  E  E   
--------------------------|--------------------------|
--2-----2-----2-----2-----|--2-----2-----2-----2--2--|
--------------------------|--------------------------|
--------------------------|--------------------------|


  Q    Q    E  E  S S  E      Q     E.   S E   E   E   S  S  
------------2--6--6-8-11--|--11----11---11-9--11--11--------|
--4----4------------------|---------------------------11----|
--------------------------|------------------------------12-|
--------------------------|---------------------------------|


   H        E  E  E  E     E  H        E  S S S S    Q    E  Q    E.  S E   
---------------7--9--7--|--9----------------------|------------------------|
------------9-----------|--7------------------0-2-|--0------------7---9-7--|
--10--------------------|-----------------0-2-----|----------9-------------|
------------------------|-------------------------|------------------------|


  Q    E  Q    E  S S S S    E  E  E  Q    E  S S E   
--------------------4-7-4-|--------2--4----2--2-4-2--|
---------------7--7-------|-----4--------------------|
-------7------------------|--------------------------|
--------------------------|--------------------------|


  E  E  Q    E  E  S S E     Q    E  E  E  E  Q       Q    E  Q    E  S S E   
--------2----4--2--4-2----|--2----------2----------|----------0--------------|
-----4-----------------4--|----------2-----2-------|------------------2------|
--------------------------|------------------------|-------------------------|
--------------------------|------------------------|-------------------------|


  E  E  Q    E  E  S S E     E  E  Q    E  E  S S E   
--------2----4--2--4-2----|--------2----4--2--4-2----|
-----4-----------------4--|-----4-----------------4--|
--------------------------|--------------------------|
--------------------------|--------------------------|


  E  E  E  S E.  E  E  E     E  E  E  Q    E  E  E     Q    E  E  E  Q    E   
--------2--2-4---2--------|--------2--4----2--------|----------2-------------|
-----4--------------4--2--|-----4-------------4-----|-------2-----2----------|
--------------------------|-------------------------|------------------------|
--------------------------|-------------------------|------------------------|


  Q    E  Q    E  S S E     E  E  Q    E  E  S S E     E  E  E  Q    E  E  E   
----------0--------------|--------2----4--2--0------|--------2--4----2--------|
------------------2------|-----4---------------4-2--|-----4-------------4-----|
-------------------------|--------------------------|-------------------------|
-------------------------|--------------------------|-------------------------|


  Q    E  E  E  Q    E     Q    E  Q    E  S S E     E  E  Q    E  E  S S E   
----------2-------------|----------0--------------|--------2----4--2--0------|
-------2-----2----------|------------------2------|-----4---------------4-2--|
------------------------|-------------------------|--------------------------|
------------------------|-------------------------|--------------------------|


  E  E  E  Q    E  E  E     Q    E  E  E  Q    E     Q    E  Q    E  S S E   
--------2--4----2--------|----------2-------------|----------0--------------|
-----4-------------4-----|-------2-----2----------|------------------2------|
-------------------------|------------------------|-------------------------|
-------------------------|------------------------|-------------------------|


  E  E  E  E  E  E  E  E     W                   E  H        Q    E    
-----7-----7-----0-----0--|--7----------------|----------------------||
--------------------------|-------------------|----------------------||
--------------------------|-------------------|----------------------||
--------------------------|-------------------|----------------------||




Duration Legend
---------------
W - whole
H - half
Q - quarter
E - 8th
S - 16th
T - 32nd
X - 64th
. - note dotted
|-n-|  - n-tuplets


Tablature Legend
----------------
L - tied note
x - dead note
g - grace note
(n) - ghost note
> - accentuded note
NH - natural harmonic
AH - artificial harmonic
TH - tapped harmonic
SH - semi harmonic
PH - pitch harmonic
h - hammer on
p - pull off
b - bend
br - bendRelease
pb - preBend
pbr - preBendRelease
brb - bendReleaseBend
\n/ - tremolo bar dip
\n - tremolo bar dive
-/n - tremolo bar Release up
/n\ - tremolo bar inverted dip
/n - tremolo bar return
-\n - tremolo bar Release down
S - shift slide
s - legato slide
/ -  slide into from below or out of upwards
\ -  slide into from above or out of downwards
~ - vibrato
W - wide vibrato
tr - trill
TP - tremolo picking
T - tapping
S - slap
P - pop
< - fade in
^ - brush up
v - brush down
comments
We did not receive enough feedback on this tab! Please rate:
print report bad tab
1 2 3 4 5
3 comments total.
+1 reply
SoftParade1967 wrote on July 16 2008, 05:17 pm

Im so glad someone tabbed this!!!! thank you!!!! Love this song!! The Doors best! and a great bassline!

5*

0 reply
Lennonyc wrote on June 11 2011, 03:00 am

0 reply
Lennonyc wrote on June 11 2011, 03:02 am

The opening bassline is wrong. If someone can show me how to create a tab I will make the correction.

I want to post or [tab]
guest
You may want to rate the tab now too:
select rating
Please do not post tabs as comments. Select "correction" instead!