Oops, an error
Loading. Please wait.

Hyacinth House Tab

version 1
version 1

Whole song

Interactive

10,077 views 15 this week
no commentswrite comment
1 2 3 4 5
accurate
x 2
add to favorites
launch autoscroll
font size
0
reset
how to read this tab
guitar tuner
Tab Pro tools
  • play this tab
  • loop segment
  • change instrument
  • show fretboard
  • metronome
Autoscroll
slow
fast
+/-
esc
set tempo
stop
Band: The Doors
Song: Hyacinth House


     W                   Q    E.  S E  E.  S E     E  E  E  Q    E  E  E   
E||-------------------|-------2---2-2--2---2-2--|--0--2--0--2----2--------|
B||-------------------|-------3---3-3--3---3-3--|--0--3--0--3----3--0-----|
G||-------------------|-------2---2-2--2---2-2--|--0--2--0--2----2-----2--|
D||-------------------|-------------------------|-------------------------|
A||-------------------|-------------------------|-------------------------|
E||-------------------|-------------------------|-------------------------|


  Q    E.  S E  E.  S E     E  E  E  Q    E  E  E     Q    E.  S E  E.  S E   
-------2---2-2--2---2-2--|--0--2--0--2----2--------|-------2---2-2--2---2-2--|
-------3---3-3--3---3-3--|--0--3--0--3----3--0-----|-------3---3-3--3---3-3--|
-------2---2-2--2---2-2--|--0--2--0--2----2-----2--|-------2---2-2--2---2-2--|
-------------------------|-------------------------|--4----------------------|
-------------------------|-------------------------|-------------------------|
-------------------------|-------------------------|-------------------------|


  E  E  E  Q    E  E  E     Q    E.  S E  E.  S E     E  E  E  Q    E  E  E   
--0--2--0--2----2--------|-------2---2-2--2---2-2--|--0--2--0--2----2--------|
--0--3--0--3----3--0-----|-------3---3-3--3---3-3--|--0--3--0--3----3--0-----|
--0--2--0--2----2-----2--|-------------------------|--0--2--0--2----2-----2--|
-------------------------|-------------------------|-------------------------|
-------------------------|-------------------------|-------------------------|
-------------------------|-------------------------|-------------------------|


  Q    Q    E  Q    E     E  E  E  Q.     E  E     Q    Q    E  Q    E   
-----------------------|------------------------|-----------------------|
-------3----3--3----3--|--0--------3------0-----|-------3----3--3----3--|
-------2----2--2----2--|--0--2--0------------2--|-------2----2--2----2--|
-----------------------|-----4-----4------------|-----------------------|
-----------------------|------------------------|-----------------------|
-----------------------|------------------------|-----------------------|


  E  E  E  Q.     E  E     E  Q    Q    Q    E     E  Q    Q.     Q     
------------------------|-----------------------|----------------------|
--0--------3------3-----|-----------------------|-----3----3-----------|
--0--2--0------------2--|--2--2----2----2----2--|-----4----4------0----|
-----4-----4------------|--2--2----2----2----2--|----------------------|
------------------------|-----------------------|----------------------|
------------------------|-----------------------|----------------------|


  E  Q.     Q    S S E     E  Q.     H           Q    Q    Q    Q     
-----------------2-3-5--|--7--5------5--------|----------------------|
--0--------------3-5-7--|--8--7------7--------|----------------------|
--0--2------2-----------|------------7--------|-------7----7----7----|
-----4------4-----------|---------------------|--7----7----7----7----|
------------------------|---------------------|--9-------------------|
------------------------|---------------------|----------------------|


  E  E  E  Q    E  E  E     E  Q    H        E     E  Q    E  H         
-------------------------|----------------------|--7--5----5--5--------|
-------------------------|--0--3----3--------L--|--8--7----7--7--------|
--0-----0----------0-----|--0--2----2--------L--|----------------------|
-----4-----4----4-----4--|----------------------|----------------------|
-------------------------|----------------------|----------------------|
-------------------------|----------------------|----------------------|


  Q    Q    Q    Q       E  E  E  Q    E  E  E     E  Q    Q    E  S S E   
----------------------|-------------------------|-------------------------|
-------3----3----3----|-------------------------|--0--3----3--------------|
--2----2----2----2----|--0-----0----------0-----|--0--2----2----2----0-2--|
--4-------------------|-----4-----4----4-----4--|------------------4------|
----------------------|-------------------------|-------------------------|
----------------------|-------------------------|-------------------------|


  E  E  E  E  H           E  Q    Q    Q    E     E  Q    Q    E  E  E   
-----------------------|-----------------------|------------------0-----|
--0--------------------|-----------------------|-----3----3----3-----3--|
--0--2--0--2--2--------|--2--2----2----2----2--|-----4----4-------------|
-----4--2--4--4--------|--2--2----2----2----2--|------------------------|
-----------------------|-----------------------|------------------------|
-----------------------|-----------------------|------------------------|


  E  E  E  H        E     E  E  E  Q    Q    E     E  E  E  E  E  E  E  E   
--1--------------------|--7--5--0--5----5-------|--0-----------------------|
-----3--1--3--------L--|--8--7--8--7----7----4--|--0-----0-----0-----0-----|
-----------------------|---------------------3--|--0-----0-----0-----0-----|
-----------------------|---------------------4--|--------------------------|
-----------------------|------------------------|--------------------------|
-----------------------|------------------------|--------------------------|


  E  E  E  E  E  S S E  S S    E  E  E  E  E  E  E  E   
----------------------------|--------------------------|
--0-----0-------------------|--0-----0-----0-----0-----|
--0-----0-----3--2---2--0---|--0-----0-----0-----0-----|
-------------------2------2-|--------------------------|
----------------------------|--------------------------|
----------------------------|--------------------------|


  E  E  E  E  E  S S E  S S    E  E  E  E  E  E  E  E   
----------------------------|--------------------------|
--0-----0-------------------|--0-----0-----0-----0-----|
--0-----0-----3--2---2--0---|--0-----0-----0-----0-----|
-------------------2------2-|--------------------------|
----------------------------|--------------------------|
----------------------------|--------------------------|


  E  E  E  E  E  E  E  E     Q    E  E  Q    Q       E  E  E  E  E  E  E  E   
--------------------------|-----------------------|--------------------------|
--0-----0-----0-----0-----|----------0--2----2----|--2-----2-----2-----2-----|
--0-----0-----0-----0-----|--2---------------2----|--4--2--4--2--4--2--4--2--|
--------------------------|-----------------------|--------------------------|
--------------------------|-----------------------|--------------------------|
--------------------------|-----------------------|--------------------------|


  E  E  E  E  E  E  E  E     E  H        E  E  E     Q    Q    E  Q    E   
--------------------------|--5--------------2-----|-----------------------|
--0-----3-----3-----3-----|--5--------------0-----|-------3----3--3----3--|
-----0--4--0--4--0--4--0--|--2--------------0--0--|--2----2----2--2----2--|
--------------------------|--2--------------------|-----------------------|
--------------------------|--0--------------------|-----------------------|
--------------------------|-----------------------|-----------------------|


  E  E  E  Q.     E  E     Q    Q    E  Q    E     E  E  E  Q.     E  E   
------------------------|-----------------------|------------------------|
--0--------3------0-----|-------3----3--3----3--|--0--------3------3-----|
--0--2--0------------2--|-------2----2--2----2--|--0--2--0------------2--|
-----4-----4------------|-----------------------|-----4-----4------------|
------------------------|-----------------------|------------------------|
------------------------|-----------------------|------------------------|


  E  Q    Q    Q    E     Q    E  Q    Q.        Q    Q    H         
-----------------------|----------------------|---------------------|
-----------------------|----------0----0------|---------------------|
--2--2----2----2----2--|-------0-------0------|--2----2-------------|
--2--2----2----2----2--|----------------------|--4----4-------------|
-----------------------|----------------------|---------------------|
-----------------------|----------------------|---------------------|


  E  Q.     H           E.  S H        E  E     E.  S Q    H         
--7--5------5--------|--7---5-5-----------0--|--7---5-5-------------|
--8--7------7--------|--8---7-7--------7--8--|--8---7-7----7--------|
------------7--------|-----------------7-----|-------------7--------|
---------------------|-----------------------|----------------------|
---------------------|-----------------------|----------------------|
---------------------|-----------------------|----------------------|


  Q    Q    E  Q    E     E  Q    Q    E  E  E     Q    Q    E  E  E  E   
--0----0----0--0----0--|---------------0--------|-------5-------------0--|
------------2--2----2--|--3--3---------0-----3--|-------7-------7-----8--|
-----------------------|--4--4---------------4--|---------------7--------|
-----------------------|------------------------|------------------------|
-----------------------|------------------------|------------------------|
-----------------------|------------------------|------------------------|


  Q    E.  S E  Q.        Q    Q    E  Q    E     E  Q    Q    E  E  E   
--0--------------------|--0----0----0--0----0--|---------------0--------|
--8----7---7-0--7------|------------2--2----2--|--3--3---------0-----3--|
-------7---7-7--7------|-----------------------|--4--4---------------4--|
-----------------------|-----------------------|------------------------|
-----------------------|-----------------------|------------------------|
-----------------------|-----------------------|------------------------|


  Q    Q    E  E  E  E     Q    E.  S E  Q.        Q    Q    E  Q    E   
-------5-------------0--|--0--------------------|--0----0----0--0----0--|
-------7-------7-----8--|--8----7---7-0--7------|------------2--2----2--|
---------------7--------|-------7---7-7--7------|-----------------------|
------------------------|-----------------------|-----------------------|
------------------------|-----------------------|-----------------------|
------------------------|-----------------------|-----------------------|


  E  Q    Q    E  E  E     H        H           E  E  E  H        E   
---------------0--------|--5--------3--------|--2--------------------|
--3--3---------0-----3--|--7--------3--------|--0-----0--3--------L--|
--4--4---------------4--|--7-----------------|-----2--0--------------|
------------------------|--------------------|-----------4--------L--|
------------------------|--------------------|-----------------------|
------------------------|--------------------|-----------------------|


  E  H        Q    E    
----------------------||
--L-------------------||
----------------------||
--L-------------------||
----------------------||
----------------------||




Duration Legend
---------------
W - whole
H - half
Q - quarter
E - 8th
S - 16th
T - 32nd
X - 64th
. - note dotted
|-n-|  - n-tuplets


Tablature Legend
----------------
L - tied note
x - dead note
g - grace note
(n) - ghost note
> - accentuded note
NH - natural harmonic
AH - artificial harmonic
TH - tapped harmonic
SH - semi harmonic
PH - pitch harmonic
h - hammer on
p - pull off
b - bend
br - bendRelease
pb - preBend
pbr - preBendRelease
brb - bendReleaseBend
\n/ - tremolo bar dip
\n - tremolo bar dive
-/n - tremolo bar Release up
/n\ - tremolo bar inverted dip
/n - tremolo bar return
-\n - tremolo bar Release down
S - shift slide
s - legato slide
/ -  slide into from below or out of upwards
\ -  slide into from above or out of downwards
~ - vibrato
W - wide vibrato
tr - trill
TP - tremolo picking
T - tapping
S - slap
P - pop
< - fade in
^ - brush up
v - brush down
comments
We did not receive enough feedback on this tab! Please rate:
print report bad tab
1 2 3 4 5
I want to post or [tab]
guest
You may want to rate the tab now too:
select rating
Please do not post tabs as comments. Select "correction" instead!